Friday, December 12, 2014

Special Appeal

Dear friends and readers,

We would like to thank all of you who have been supporting us since the blog started in late 2007. As you can see, there have been many changes to the design, layout, and content of the blog, and they can be attributed to your constructive comments and feedback.

It has been our great joy and pleasure in offering our services for your benefit, to teach and provide useful resources for learning to play the guitar for God’s glory. We trust and pray that your worship experience has been enriched, and that it really pleases our Lord when His children sing His praises.

There are a few requests that we would like to make regarding the blog:

  1. We have been experiencing a huge amount of videos, instructionals, and tabs requests, and are unable to keep up with them due to time constraints at work. As such, we will not be taking any more requests until further notice, and will continue to work on the long lists that we currently have.

  2. Please refer to the “Current Projects” and “Recently Added” sections in the left-hand column to keep abreast with what we’re up to, and what you can expect.

  3. For those who need chords to songs urgently, I will still be able to provide them over the chat box in the left-hand column, as it requires a significantly less amount of time.

  4. We would like to add value to the help we can provide. Please feel free to ask any questions you may have over the chat box. Moreover, we would like you to share your learning experience with us! If you are able to put up videos of yourselves on YouTube (you can choose the “private” option unless you want to share it with the world), we can provide you some feedback on how else to improve.
Thank you once again for your continued support. It is our vision that this blog will be a worship resource centre that will not only teach others how to play the guitar, but more importantly, to bring glory to our Lord Jesus Christ, who is the object of our praise and worship.

To God be all the glory, honour, and praise!


God bless,
Graham & Daniel Choo

Sunday, July 20, 2014

Lead Me To Calvary

A classic Christian hymn by Jennie Evelyn Hussey. The lyrics speak of the centrality of Jesus' death and resurrection to the Christian faith, and our response of a life of sacrifice for all that God has done for us. In 1 Corinthians 15:3-4, Paul tells the church in Corinth the foundational message of Christ's death and resurrection, and how if Christ did not rise from the dead, then our faith is futile and we are still in our sins (1 Corinthians 15:17-18).

Indeed we need to be reminded daily of God's love for us through Jesus' determination and resolution to go to the cross for us at Gethsemane, and as He hung on the cross at Calvary until death - all for the sake of reconciling sinful man to God. Thank You Jesus for all that You've done and may we bear our cross daily for You in grateful response!





-----------------------------------------------------------------
LEAD ME TO CALVARY – Jennie Evelyn Hussey
-----------------------------------------------------------------
Tabbed by: Graham Choo
Email: da_tweens@yahoo.co.uk

Tuning: Standard
Intro:
   C  Csus
e|-0---0---------------------------------------------------------|
B|-1---1---------------------------------------------------------|
G|-0---0---------------------------------------------------------|
D|-2---3---------------------------------------------------------|
A|-3---3---------------------------------------------------------|
E|---------------------------------------------------------------|
Verse 1:
   C Fmaj7 C   G   C  C7 Fmaj7 C   G   C  Csus C
e|-0---0---0---3---0---0---0---0---3---0---0---0-----------------|
B|-1---1---1---3---1---1---1---1---3---1---1---1-----------------|
G|-0---2---0---0---0---3---2---0---0---0---0---0-----------------|
D|-2---3---2---0---2---2---3---2---0---2---3---2-----------------|
A|-3---3---3---2---3---3---3---3---2---3---3---3-----------------|
E|-------------3-------------------3-----------------------------|
Chorus 1:
   G   C   G   C  C/B  Am Em Fmaj7 C   G   C
e|-3---0---3---0---0---0---0---0---0---3---0---------------------|
B|-3---1---3---1---1---1---0---1---1---3---1---------------------|
G|-0---0---0---0---0---2---0---2---0---0---0---------------------|
D|-0---2---0---2---0---2---2---3---2---0---2---------------------|
A|-2---3---2---3---2---0---2---3---3---2---3---------------------|
E|-3-------3---------------0-----------3-------------------------|
Interlude 1:
  Csus C
e|-0---0---------------------------------------------------------|
B|-1---1---------------------------------------------------------|
G|-0---0---------------------------------------------------------|
D|-3---2---------------------------------------------------------|
A|-3---3---------------------------------------------------------|
E|---------------------------------------------------------------|
Verse 1
Chorus 1
Interlude 1
Verse 1
Chorus 1
Interlude 2:
   A
e|-0-------------------------------------------------------------|
B|-2-------------------------------------------------------------|
G|-2-------------------------------------------------------------|
D|-2-------------------------------------------------------------|
A|-0-------------------------------------------------------------|
E|---------------------------------------------------------------|
Verse 2:
   D  D/F# G   D  Asus A7  D  D/F# G   D  Asus D  Dsus D
e|-2---0---3---2---0---0---2---0---3---2---0---2---3---2---------|
B|-3---3---3---3---3---2---3---3---3---3---3---3---3---3---------|
G|-2---2---0---2---2---0---2---2---0---2---2---2---2---2---------|
D|-0---0---0---0---2---2---0---0---0---0---2---0---0---0---------|
A|-----0---2-------0---0-------0---2-------0---------------------|
E|-----2---3-------------------2---3-----------------------------|
Chorus 2:
  Asus D  Asus D  A/C# Bm F#m  G   D  Asus D  Dsus D
e|-0---2---0---2---0---2---2---3---2---0---2---3---2-------------|
B|-3---3---3---3---2---3---2---3---3---3---3---3---3-------------|
G|-2---2---2---2---2---4---2---0---2---2---2---2---2-------------|
D|-2---0---2---0---0---4---4---0---0---2---0---0---0-------------|
A|-0-------0-------4---2---4---2-------0-------------------------|
E|-------------------------2---3---------------------------------|
| /  slide up
| \  slide down
| h  hammer-on
| p  pull-off
| ~  vibrato
| +  harmonic
| x  Mute note

Click HERE To Download PDF