Friday, December 12, 2014

Special Appeal

Dear friends and readers,

We would like to thank all of you who have been supporting us since the blog started in late 2007. As you can see, there have been many changes to the design, layout, and content of the blog, and they can be attributed to your constructive comments and feedback.

It has been our great joy and pleasure in offering our services for your benefit, to teach and provide useful resources for learning to play the guitar for God’s glory. We trust and pray that your worship experience has been enriched, and that it really pleases our Lord when His children sing His praises.

There are a few requests that we would like to make regarding the blog:

  1. We have been experiencing a huge amount of videos, instructionals, and tabs requests, and are unable to keep up with them due to time constraints at work. As such, we will not be taking any more requests until further notice, and will continue to work on the long lists that we currently have.

  2. Please refer to the “Current Projects” and “Recently Added” sections in the left-hand column to keep abreast with what we’re up to, and what you can expect.

  3. For those who need chords to songs urgently, I will still be able to provide them over the chat box in the left-hand column, as it requires a significantly less amount of time.

  4. We would like to add value to the help we can provide. Please feel free to ask any questions you may have over the chat box. Moreover, we would like you to share your learning experience with us! If you are able to put up videos of yourselves on YouTube (you can choose the “private” option unless you want to share it with the world), we can provide you some feedback on how else to improve.
Thank you once again for your continued support. It is our vision that this blog will be a worship resource centre that will not only teach others how to play the guitar, but more importantly, to bring glory to our Lord Jesus Christ, who is the object of our praise and worship.

To God be all the glory, honour, and praise!


God bless,
Graham & Daniel Choo

Monday, April 14, 2014

Jesus Shall Take The Highest Honour

A Christian song by Chris Bowater. The lyrics are taken from Philippians 2:9-11 and speak of how Jesus deserves and has been given all honour, blessing and power for all He has done. And this name which God has given Jesus, which is above every other name, and which commands our worship, is given because He had humbled Himself by dying on the cross for our sins.

Indeed Jesus shall take the highest honour and praise, for it is through his death on the cross for our sins that God's salvation plan from mankind has been fulfilled. And we gain access to the Father because His life and righteousness has ransomed us from what should have been our punishment for sin - death and eternal separation from God. Let us echo the words of Paul in declaring that all honour and blessing and power belong to Jesus, the Son of the living God!





-----------------------------------------------------------------------------------
JESUS SHALL TAKE THE HIGHEST HONOUR – Chris Bowater
-----------------------------------------------------------------------------------
Tabbed by: Graham Choo
Email: da_tweens@yahoo.co.uk

Tuning: Standard (Capo 2nd Fret)
Intro:
   G   C9 Dsus
e|-3---3---3-----------------------------------------------------|
B|-3---3---3-----------------------------------------------------|
G|-0---0---2-----------------------------------------------------|
D|-0---2---0-----------------------------------------------------|
A|-2---3---------------------------------------------------------|
E|-3-------------------------------------------------------------|
Verse:
   G  Am7 G/B  C9  D   Bm  Em Am7  D   G   Em  A   D
e|-3---3---3---3---2---2---0---3---2---3---3---0---2-------------|
B|-3---1---3---3---3---3---0---1---3---3---3---2---3-------------|
G|-0---0---0---0---2---4---0---0---2---0---0---2---2-------------|
D|-0---2---0---2---0---4---2---2---0---0---2---2---0-------------|
A|-2---0---2---3-------2---2---0-------2---2---0-----------------|
E|-3-----------------------0-----------3---0---------------------|
   G  Am7 G/B  C9  D   Bm  Em Am7  D   G  D/F# Em  A   D
e|-3---3---3---3---2---2---0---3---2---3---3---3---0---2---------|
B|-3---1---3---3---3---3---0---1---3---3---3---3---2---3---------|
G|-0---0---0---0---2---4---0---0---2---0---2---0---2---2---------|
D|-0---2---0---2---0---4---2---2---0---0---0---2---2---0---------|
A|-2---0---2---3-------2---2---0-------2---0---2---0-------------|
E|-3-----------------------0-----------3---2---0-----------------|
Chorus:
   G   D   Em  C9  G  Am7  D   G   D   Em  C9  G  Am7  D
e|-3---2---3---3---3---3---2---3---2---3---3---3---3---2---------|
B|-3---3---3---3---3---1---3---3---3---3---3---3---1---3---------|
G|-0---2---0---0---0---0---2---0---2---0---0---0---0---2---------|
D|-0---0---2---2---0---2---0---0---0---2---2---0---2---0---------|
A|-2-------2---3---2---0-------2-------2---3---2---0-------------|
E|-3-------0-------3-----------3-------0-------3-----------------|
   B   Em  C9 Dsus G
e|-2---0---3---3---3---------------------------------------------|
B|-4---0---3---3---3---------------------------------------------|
G|-4---0---0---2---0---------------------------------------------|
D|-4---2---2---0---0---------------------------------------------|
A|-2---2---3-------2---------------------------------------------|
E|-----0-----------3---------------------------------------------|
Interlude:
   C9 Dsus
e|-3---3---------------------------------------------------------|
B|-3---3---------------------------------------------------------|
G|-0---2---------------------------------------------------------|
D|-2---0---------------------------------------------------------|
A|-3-------------------------------------------------------------|
E|---------------------------------------------------------------|
Verse
Chorus
Outro:
   G
e|-3-------------------------------------------------------------|
B|-3-------------------------------------------------------------|
G|-0-------------------------------------------------------------|
D|-0-------------------------------------------------------------|
A|-2-------------------------------------------------------------|
E|-3-------------------------------------------------------------|
| /  slide up
| \  slide down
| h  hammer-on
| p  pull-off
| ~  vibrato
| +  harmonic
| x  Mute note

Click HERE To Download PDF