Friday, December 12, 2014

Special Appeal

Dear friends and readers,

We would like to thank all of you who have been supporting us since the blog started in late 2007. As you can see, there have been many changes to the design, layout, and content of the blog, and they can be attributed to your constructive comments and feedback.

It has been our great joy and pleasure in offering our services for your benefit, to teach and provide useful resources for learning to play the guitar for God’s glory. We trust and pray that your worship experience has been enriched, and that it really pleases our Lord when His children sing His praises.

There are a few requests that we would like to make regarding the blog:

  1. We have been experiencing a huge amount of videos, instructionals, and tabs requests, and are unable to keep up with them due to time constraints at work. As such, we will not be taking any more requests until further notice, and will continue to work on the long lists that we currently have.

  2. Please refer to the “Current Projects” and “Recently Added” sections in the left-hand column to keep abreast with what we’re up to, and what you can expect.

  3. For those who need chords to songs urgently, I will still be able to provide them over the chat box in the left-hand column, as it requires a significantly less amount of time.

  4. We would like to add value to the help we can provide. Please feel free to ask any questions you may have over the chat box. Moreover, we would like you to share your learning experience with us! If you are able to put up videos of yourselves on YouTube (you can choose the “private” option unless you want to share it with the world), we can provide you some feedback on how else to improve.
Thank you once again for your continued support. It is our vision that this blog will be a worship resource centre that will not only teach others how to play the guitar, but more importantly, to bring glory to our Lord Jesus Christ, who is the object of our praise and worship.

To God be all the glory, honour, and praise!


God bless,
Graham & Daniel Choo

Sunday, August 17, 2014

Change My Heart O God

A Christian song by Eddie Espinosa. The lyrics speak of a desire to let God change our hearts so that we can be more like Him. The imagery used is that of a potter and the clay which He is moulding. God is the Potter, and we are the clay, the work of His hand (Isaiah 64:8). May we be willing to let God sanctify us to be more like Christ in our thoughts, words and deeds.





-----------------------------------------------------------------
CHANGE MY HEART O GOD – Eddie Espinosa
-----------------------------------------------------------------
Tabbed by: Graham Choo
Email: da_tweens@yahoo.co.uk

Tuning: Standard
Intro:
   C              Csus             C               C7
e|-0-------0-------0-------0-------0-------0-------0---------------|
B|-1---1-------1---1---1-------1---1---1-------1---2---------------|
G|-0-0---0---0---0-0-0---0---0---0-0-0---0---0---0-3---------------|
D|-2---------------3---------------2---------------2---------------|
A|-3---------------3---------------3---------------3---------------|
E|-----------------------------------------------------------------|
Verse 1:
   Dm              G               C              Am7
e|-1-------1-------3-------3-------0-------0-------0-------0-------|
B|-3---3-------3---3---3-------3---1---1-------1---1---1-------1---|
G|-2-2---2---2---2-0-0---0---0---0-0-0---0---0---0-0-0---0---0---0-|
D|-0---------------0---------------2---------------2---------------|
A|-----------------2---------------3---------------0---------------|
E|-----------------3-----------------------------------------------|
   Dm              G               C               C7
e|-1-------1-------3-------3-------0-------0-------0---------------|
B|-3---3-------3---3---3-------3---1---1-------1---2---------------|
G|-2-2---2---2---2-0-0---0---0---0-0-0---0---0---0-3---------------|
D|-0---------------0---------------2---------------2---------------|
A|-----------------2---------------3---------------3---------------|
E|-----------------3-----------------------------------------------|
   Dm              G               C              Am7
e|-1-------1-------3-------3-------0-------0-------0-------0-------|
B|-3---3-------3---3---3-------3---1---1-------1---1---1-------1---|
G|-2-2---2---2---2-0-0---0---0---0-0-0---0---0---0-0-0---0---0---0-|
D|-0---------------0---------------2---------------2---------------|
A|-----------------2---------------3---------------0---------------|
E|-----------------3-----------------------------------------------|
   Dm              G               C               E7
e|-1-------1-------3-------3-------0-------0-------0-------0-------|
B|-3---3-------3---3---3-------3---1---1-------1---3---3-------3---|
G|-2-2---2---2---2-0-0---0---0---0-0-0---0---0---0-1-1---1---1---1-|
D|-0---------------0---------------2---------------0---------------|
A|-----------------2---------------3---------------2---------------|
E|-----------------3-------------------------------0---------------|
Chorus:
  Am7            Fmaj7 G   C               E7
e|-0-------0-------0---3---0-------0-------0-------0---------------|
B|-1---1-------1---1---3---1---1-------1---3---3-------3-----------|
G|-0-0---0---0---0-2---0---0-0---0---0---0-1-1---1---1---1---------|
D|-2---------------3---0---2---------------0-----------------------|
A|-0---------------3---2---3---------------2-----------------------|
E|---------------------3-------------------0-----------------------|
  Am7              D               G               C
e|-0-------0-------2-------2-------3-------3-------0-------0-------|
B|-1---1-------1---3---3-------3---3---3-------3---1---1-------1---|
G|-0-0---0---0---0-2-2---2---2---2-0-0---0---0---0-0-0---0---0---0-|
D|-2---------------0---------------0---------------2---------------|
A|-0-------------------------------2---------------3---------------|
E|---------------------------------3-------------------------------|
Verse 2:
   Dm              G               C              Am7
e|-1-------1-------3-------3-------0-------0-------0-------0-------|
B|-3---3-------3---3---3-------3---1---1-------1---1---1-------1---|
G|-2-2---2---2---2-0-0---0---0---0-0-0---0---0---0-0-0---0---0---0-|
D|-0---------------0---------------2---------------2---------------|
A|-----------------2---------------3---------------0---------------|
E|-----------------3-----------------------------------------------|
   Dm              G
e|-1-------1-------3-----------------------------------------------|
B|-3---3-------3---3-----------------------------------------------|
G|-2-2---2---2---2-0-----------------------------------------------|
D|-0---------------0-----------------------------------------------|
A|-----------------2-----------------------------------------------|
E|-----------------3-----------------------------------------------|
Outro:
   C      Csus     C
e|-0-------0-------0-----------------------------------------------|
B|-1---1---1---1---1-----------------------------------------------|
G|-0-0---0-0-0---0-0-----------------------------------------------|
D|-2-------3-------2-----------------------------------------------|
A|-3-------3-------3-----------------------------------------------|
E|-----------------------------------------------------------------|
| /  slide up
| \  slide down
| h  hammer-on
| p  pull-off
| ~  vibrato
| +  harmonic
| x  Mute note

Click HERE To Download PDF