Friday, December 12, 2014

Special Appeal

Dear friends and readers,

We would like to thank all of you who have been supporting us since the blog started in late 2007. As you can see, there have been many changes to the design, layout, and content of the blog, and they can be attributed to your constructive comments and feedback.

It has been our great joy and pleasure in offering our services for your benefit, to teach and provide useful resources for learning to play the guitar for God’s glory. We trust and pray that your worship experience has been enriched, and that it really pleases our Lord when His children sing His praises.

There are a few requests that we would like to make regarding the blog:

  1. We have been experiencing a huge amount of videos, instructionals, and tabs requests, and are unable to keep up with them due to time constraints at work. As such, we will not be taking any more requests until further notice, and will continue to work on the long lists that we currently have.

  2. Please refer to the “Current Projects” and “Recently Added” sections in the left-hand column to keep abreast with what we’re up to, and what you can expect.

  3. For those who need chords to songs urgently, I will still be able to provide them over the chat box in the left-hand column, as it requires a significantly less amount of time.

  4. We would like to add value to the help we can provide. Please feel free to ask any questions you may have over the chat box. Moreover, we would like you to share your learning experience with us! If you are able to put up videos of yourselves on YouTube (you can choose the “private” option unless you want to share it with the world), we can provide you some feedback on how else to improve.
Thank you once again for your continued support. It is our vision that this blog will be a worship resource centre that will not only teach others how to play the guitar, but more importantly, to bring glory to our Lord Jesus Christ, who is the object of our praise and worship.

To God be all the glory, honour, and praise!


God bless,
Graham & Daniel Choo

Tuesday, December 2, 2014

Me And My House

Me And My HouseA Christian song by the Heritage Singers. The lyrics are taken from Joshua 24:15 where Joshua had led the Israelites into the Promised Land. He recounted to them all that the Lord had done in choosing them and redeeming them from slavery, bringing them out of Egypt, fighting their battles for them and finally bringing them into the Promised Land. But their journey had been frought with much grumbling and falling away from the Lord. So Joshua makes a stand and tells them to choose to serve the Lord, or the other gods of the land. But as for him as his house, he will serve the Lord.

Indeed it is the cry of every believer that we and our households will choose to serve the Lord. However, we know from Israel's over-zealous commitment that it was bound to fail, because they had simply tried relying on their own strength. Oh Lord how we need to rely on Your Spirit to serve You with all that we have. Help us to endure through the thick and thin, and to give You the praise You deserve for You are worthy!





-----------------------------------------------------------------
ME AND MY HOUSE – Heritage Singers
-----------------------------------------------------------------
Tabbed by: Graham Choo
Email: da_tweens@yahoo.co.uk

Tuning: Standard (Capo 1st Fret)
Intro:
   E   A   B   E   A   B
e|-0---0---0---0---0---0-----------------------------------------|
B|-0---0---0---0---0---0-----------------------------------------|
G|-1---2---4---1---2---4-----------------------------------------|
D|-2---2---4---2---2---4-----------------------------------------|
A|-2---0---2---2---0---2-----------------------------------------|
E|-0-----------0-------------------------------------------------|
Verse:
   E   A   B   E   A   B   E  C#m F#m  B
e|-0---0---0---0---0---0---0---4---0---0-------------------------|
B|-0---0---0---0---0---0---0---5---0---0-------------------------|
G|-1---2---4---1---2---4---1---6---2---4-------------------------|
D|-2---2---4---2---2---4---2---6---4---4-------------------------|
A|-2---0---2---2---0---2---2---4---4---2-------------------------|
E|-0-----------0-----------0-------------------------------------|
   E   A   B   E   A   B   E  C#m F#m  B
e|-0---0---0---0---0---0---0---4---0---0-------------------------|
B|-0---0---0---0---0---0---0---5---0---0-------------------------|
G|-1---2---4---1---2---4---1---6---2---4-------------------------|
D|-2---2---4---2---2---4---2---6---4---4-------------------------|
A|-2---0---2---2---0---2---2---4---4---2-------------------------|
E|-0-----------0-----------0-------------------------------------|
Pre-Chorus:
   E   A   E   D   A   Am  E  C#m F#m  B   E
e|-0---0---0---2---0---0---0---4---0---0---0---------------------|
B|-0---0---0---3---0---1---0---5---0---0---0---------------------|
G|-1---2---1---2---2---2---1---6---2---4---1---------------------|
D|-2---2---2---0---2---2---2---6---4---4---2---------------------|
A|-2---0---2-------0---0---2---4---4---2---2---------------------|
E|-0-------0---------------0---------------0---------------------|
Chorus:
   E   A   E   D   A   Am  E  C#m F#m  B   E
e|-0---0---0---2---0---0---0---4---0---0---0---------------------|
B|-0---0---0---3---0---1---0---5---0---0---0---------------------|
G|-1---2---1---2---2---2---1---6---2---4---1---------------------|
D|-2---2---2---0---2---2---2---6---4---4---2---------------------|
A|-2---0---2-------0---0---2---4---4---2---2---------------------|
E|-0-------0---------------0---------------0---------------------|
Interlude:
   B
e|-0-------------------------------------------------------------|
B|-0-------------------------------------------------------------|
G|-4-------------------------------------------------------------|
D|-4-------------------------------------------------------------|
A|-2-------------------------------------------------------------|
E|---------------------------------------------------------------| 
Bridge:
   E   D   A   Am  E   D   A   Am
e|-0---2---0---0---0---2---0---0---------------------------------|
B|-0---3---0---1---0---3---0---1---------------------------------|
G|-1---2---2---2---1---2---2---2---------------------------------|
D|-2---0---2---2---2---0---2---2---------------------------------|
A|-2-------0---0---2-------0---0---------------------------------|
E|-0---------------0---------------------------------------------|
Outro:
   E   A   E   D   A   Am  E  C#m F#m  B  C#m F#m  B   E  Esus E
e|-0---0---0---2---0---0---0---4---0---0---0---0---0---0---0---0-|
B|-0---0---0---3---0---1---0---5---0---0---0---0---0---0---0---0-|
G|-1---2---1---2---2---2---1---6---2---4---6---2---4---1---2---1-|
D|-2---2---2---0---2---2---2---6---4---4---6---4---4---2---2---2-|
A|-2---0---2-------0---0---2---4---4---2---4---4---2---2---2---2-|
E|-0-------0---------------0---------------------------0---0---0-| 
| /  slide up
| \  slide down
| h  hammer-on
| p  pull-off
| ~  vibrato
| +  harmonic
| x  Mute note

Click HERE To Download PDF