Friday, December 12, 2014

Special Appeal

Dear friends and readers,

We would like to thank all of you who have been supporting us since the blog started in late 2007. As you can see, there have been many changes to the design, layout, and content of the blog, and they can be attributed to your constructive comments and feedback.

It has been our great joy and pleasure in offering our services for your benefit, to teach and provide useful resources for learning to play the guitar for God’s glory. We trust and pray that your worship experience has been enriched, and that it really pleases our Lord when His children sing His praises.

There are a few requests that we would like to make regarding the blog:

  1. We have been experiencing a huge amount of videos, instructionals, and tabs requests, and are unable to keep up with them due to time constraints at work. As such, we will not be taking any more requests until further notice, and will continue to work on the long lists that we currently have.

  2. Please refer to the “Current Projects” and “Recently Added” sections in the left-hand column to keep abreast with what we’re up to, and what you can expect.

  3. For those who need chords to songs urgently, I will still be able to provide them over the chat box in the left-hand column, as it requires a significantly less amount of time.

  4. We would like to add value to the help we can provide. Please feel free to ask any questions you may have over the chat box. Moreover, we would like you to share your learning experience with us! If you are able to put up videos of yourselves on YouTube (you can choose the “private” option unless you want to share it with the world), we can provide you some feedback on how else to improve.
Thank you once again for your continued support. It is our vision that this blog will be a worship resource centre that will not only teach others how to play the guitar, but more importantly, to bring glory to our Lord Jesus Christ, who is the object of our praise and worship.

To God be all the glory, honour, and praise!


God bless,
Graham & Daniel Choo

Saturday, October 18, 2014

It Is Well With My Soul

A classic Christian hymn by Horatio Spafford. The lyrics speak of how regardless of whatever situation we are in, it is indeed well with our soul, because of what Christ has done on the cross for us to take away our sin, and because He will be returning again to usher us into His Kingdom. In Lamentations 3, the writer laments the dire situtation he is in, but yet he has hope because of God's great love, compassion and faithfulness for him (Lamentations 3:21-26).

Many times when we are faced with trials and tribulations, the tendancy is for us to give up and lose hope. But even amidst such times, God is still faithful, loving and just, and we can continue to hope in Him because of who He is and what He has done. May we be able to echo the words "it is well with my soul" even in the hardest of times, for God is our Rock and salvation!





-----------------------------------------------------------------
IT IS WELL WITH MY SOUL – Horatio Spafford
-----------------------------------------------------------------
Tabbed by: Graham Choo
Email: da_tweens@yahoo.co.uk

Tuning: Standard (Capo 2nd Fret)
Intro:
   G               G
e|-3-------3-------3-------3---------------------------------------|
B|-3---3-------3---3---3-------3-----------------------------------|
G|-0-0---0---0---0-0-0---0---0---0---------------------------------|
D|-0---------------0-----------------------------------------------|
A|-2---------------2-----------------------------------------------|
E|-3---------------3-----------------------------------------------|
Verse:
   G              Dsus             C9     Dsus     G
e|-3-------3-------3-------3-------3-------3-------3-------3-------|
B|-3---3-------3---3---3-------3---3---3---3---3---3---3-------3---|
G|-0-0---0---0---0-2-2---2---2---2-0-0---0-2-2---2-0-0---0---0---0-|
D|-0---------------0---------------2-------0-------0---------------|
A|-2-------------------------------3---------------2---------------|
E|-3-----------------------------------------------3---------------|
   Em              A              Dsus             D
e|-3-------3-------0-------0-------3-------3-------2-------2-------|
B|-3---3-------3---2---2-------2---3---3-------3---3---3-------3---|
G|-0-0---0---0---0-2-2---2---2---2-2-2---2---2---2-2-2---2---2---2-|
D|-2---------------2---------------0---------------0---------------|
A|-2---------------0-----------------------------------------------|
E|-0---------------------------------------------------------------|
   G               C9              A               D  
e|-3-------3-------3-------3-------0-------0-------2-------2-------|
B|-3---3-------3---3---3-------3---2---2-------2---3---3-------3---|
G|-0-0---0---0---0-0-0---0---0---0-2-2---2---2---2-2-2---2---2---2-|
D|-0---------------2---------------2---------------0---------------|
A|-2---------------3---------------0-------------------------------|
E|-3---------------------------------------------------------------|
   G               C9 Dsus G               G
e|-3-------3-------3---3---3-------3-------3-------3---------------|
B|-3---3-------3---3---3---3---3-------3---3---3-------3-----------|
G|-0-0---0---0---0-0---2---0-0---0---0---0-0-0---0---0---0---------|
D|-0---------------2---0---0---------------0-----------------------|
A|-2---------------3-------2---------------2-----------------------|
E|-3-----------------------3---------------3-----------------------|
Chorus 1:
   G              Dsus            Dsus             G
e|-3-------3-------3-------3-------3-------3-------3-------3-------|
B|-3---3-------3---3---3-------3---3---3-------3---3---3-------3---|
G|-0-0---0---0---0-2-2---2---2---2-2-2---2---2---2-0-0---0---0---0-|
D|-0---------------0---------------0---------------0---------------|
A|-2-----------------------------------------------2---------------|
E|-3-----------------------------------------------3---------------|
   C9             Dsus             G               G
e|-3-------3-------3-------3-------3-------3-------3-------3-------|
B|-3---3-------3---3---3-------3---3---3-------3---3---3-------3---|
G|-0-0---0---0---0-2-2---2---2---2-0-0---0---0---0-0-0---0---0---0-|
D|-2---------------0---------------0---------------0---------------|
A|-3-------------------------------2---------------2---------------|
E|---------------------------------3---------------3---------------|
Verse
Chorus 1
Verse
Chorus 1
Verse
Chorus 2:
   G              Dsus            Dsus             G
e|-3-------3-------3-------3-------3-------3-------3-------3-------|
B|-3---3-------3---3---3-------3---3---3-------3---3---3-------3---|
G|-0-0---0---0---0-2-2---2---2---2-2-2---2---2---2-0-0---0---0---0-|
D|-0---------------0---------------0---------------0---------------|
A|-2-----------------------------------------------2---------------|
E|-3-----------------------------------------------3---------------|
   C9             Dsus             G               G
e|-3-------3-------3-------3-------3-------3-------3---------------|
B|-3---3-------3---3---3-------3---3---3-------3---3---------------|
G|-0-0---0---0---0-2-2---2---2---2-0-0---0---0---0-0---------------|
D|-2---------------0---------------0---------------0---------------|
A|-3-------------------------------2---------------2---------------|
E|---------------------------------3---------------3---------------|
| /  slide up
| \  slide down
| h  hammer-on
| p  pull-off
| ~  vibrato
| +  harmonic
| x  Mute note

Click HERE To Download PDF