Friday, December 12, 2014

Special Appeal

Dear friends and readers,

We would like to thank all of you who have been supporting us since the blog started in late 2007. As you can see, there have been many changes to the design, layout, and content of the blog, and they can be attributed to your constructive comments and feedback.

It has been our great joy and pleasure in offering our services for your benefit, to teach and provide useful resources for learning to play the guitar for God’s glory. We trust and pray that your worship experience has been enriched, and that it really pleases our Lord when His children sing His praises.

There are a few requests that we would like to make regarding the blog:

  1. We have been experiencing a huge amount of videos, instructionals, and tabs requests, and are unable to keep up with them due to time constraints at work. As such, we will not be taking any more requests until further notice, and will continue to work on the long lists that we currently have.

  2. Please refer to the “Current Projects” and “Recently Added” sections in the left-hand column to keep abreast with what we’re up to, and what you can expect.

  3. For those who need chords to songs urgently, I will still be able to provide them over the chat box in the left-hand column, as it requires a significantly less amount of time.

  4. We would like to add value to the help we can provide. Please feel free to ask any questions you may have over the chat box. Moreover, we would like you to share your learning experience with us! If you are able to put up videos of yourselves on YouTube (you can choose the “private” option unless you want to share it with the world), we can provide you some feedback on how else to improve.
Thank you once again for your continued support. It is our vision that this blog will be a worship resource centre that will not only teach others how to play the guitar, but more importantly, to bring glory to our Lord Jesus Christ, who is the object of our praise and worship.

To God be all the glory, honour, and praise!


God bless,
Graham & Daniel Choo

Monday, November 3, 2014

Ascribe Greatness

Ascribe GreatnessA Christian song by Don Moen. The lyrics are taken from Deuteronomy 32:3-4 and speak of ascribing greatness to our God because of His attributes - He is our Rock, His works are perfect, His ways are just, He is faithful, He does no wrong, and He is upright and just.

This is the God we serve and worship, and all the above attributes are shown when God gave His only Son Jesus to be a sin atonement for us - Jesus is our foundation on which our hope is built; He is the perfect sacrifice who can atone for our sins once for all; God is just in not sparing His upright Son so that sin might be paid for on our behalf; and He is faithful in keeping His salvation promise to His people in providing King Jesus. Therefore, we ascribe greatness to our God!





-----------------------------------------------------------------
ASCRIBE GREATNESS – Don Moen
-----------------------------------------------------------------
Tabbed by: Graham Choo
Email: da_tweens@yahoo.co.uk

Tuning: Standard
Intro:
   E  G#m A/F# B   E  G#m A/F# B
e|-0---0---0---0---0---0---0---0---------------------------------|
B|-0---0---0---0---0---0---0---0---------------------------------|
G|-1---4---2---4---1---4---2---4---------------------------------|
D|-2---4---2---4---2---4---2---4---------------------------------|
A|-2---x---x---2---2---x---x---2---------------------------------|
E|-0---4---2-------0---4---2-------------------------------------|
Verse:
   E  G#m A/F# B   E   A   B   E  G#m A/F# B   E   A   B
e|-0---0---0---0---0---0---0---0---0---0---0---0---0---0---------|
B|-0---0---0---0---0---0---0---0---0---0---0---0---0---0---------|
G|-1---4---2---4---1---2---4---1---4---2---4---1---2---4---------|
D|-2---4---2---4---2---2---4---2---4---2---4---2---2---4---------|
A|-2---x---x---2---2---0---2---2---x---x---2---2---0---2---------|
E|-0---4---2-------0-----------0---4---2-------0-----------------|
Chorus:
   E  G#m A/F# B  A/F# B   E   B   E  G#m A/F# B  A/F# B   E
e|-0---0---0---0---0---0---0---0---0---0---0---0---0---0---0-----|
B|-0---0---0---0---0---0---0---0---0---0---0---0---0---0---0-----|
G|-1---4---2---4---2---4---1---4---1---4---2---4---2---4---1-----|
D|-2---4---2---4---2---4---2---4---2---4---2---4---2---4---2-----|
A|-2---x---x---2---x---2---2---2---2---x---x---2---x---2---2-----|
E|-0---4---2-------2-------0-------0---4---2-------2-------0-----|
Verse
Chorus
Outro:
  A/F# B   E  Esus E
e|-0---0---0---0---0---------------------------------------------|
B|-0---0---0---0---0---------------------------------------------|
G|-2---4---1---2---1---------------------------------------------|
D|-2---4---2---2---2---------------------------------------------|
A|-x---2---2---2---2---------------------------------------------|
E|-2-------0---0---0---------------------------------------------|
| /  slide up
| \  slide down
| h  hammer-on
| p  pull-of
| ~  vibrato
| +  harmonic
| x  Mute note

Click HERE To Download PDF