Friday, December 12, 2014

Special Appeal

Dear friends and readers,

We would like to thank all of you who have been supporting us since the blog started in late 2007. As you can see, there have been many changes to the design, layout, and content of the blog, and they can be attributed to your constructive comments and feedback.

It has been our great joy and pleasure in offering our services for your benefit, to teach and provide useful resources for learning to play the guitar for God’s glory. We trust and pray that your worship experience has been enriched, and that it really pleases our Lord when His children sing His praises.

There are a few requests that we would like to make regarding the blog:

  1. We have been experiencing a huge amount of videos, instructionals, and tabs requests, and are unable to keep up with them due to time constraints at work. As such, we will not be taking any more requests until further notice, and will continue to work on the long lists that we currently have.

  2. Please refer to the “Current Projects” and “Recently Added” sections in the left-hand column to keep abreast with what we’re up to, and what you can expect.

  3. For those who need chords to songs urgently, I will still be able to provide them over the chat box in the left-hand column, as it requires a significantly less amount of time.

  4. We would like to add value to the help we can provide. Please feel free to ask any questions you may have over the chat box. Moreover, we would like you to share your learning experience with us! If you are able to put up videos of yourselves on YouTube (you can choose the “private” option unless you want to share it with the world), we can provide you some feedback on how else to improve.
Thank you once again for your continued support. It is our vision that this blog will be a worship resource centre that will not only teach others how to play the guitar, but more importantly, to bring glory to our Lord Jesus Christ, who is the object of our praise and worship.

To God be all the glory, honour, and praise!


God bless,
Graham & Daniel Choo

Sunday, September 14, 2014

He Cares For Me

A Christian song by Jimmy Owens. The lyrics speak of the glory and majesty of our God, who created all things, but yet He cares for the smallest of His creation, even us, who pale in comparison to the universe and galaxies that He had made. King David reflects this attitude and understanding in Psalm 8:1-9 where He acknowledges God's greatness, and yet how He has given caring attention towards mankind and made them rulers over His creation.

This is the God we worship. A God who loves us and gave Himself for us that we might become children of God. Indeed our God's power is great, and yet He cares for us. Thank You for Jesus for caring for us until death on the cross, that we might be reconciled with God in a renewed relationship.





-----------------------------------------------------------------
HE CARES FOR ME – Jimmy Owens
-----------------------------------------------------------------
Tabbed by: Graham Choo
Email: da_tweens@yahoo.co.uk

Tuning: Standard
Intro:
   C  Csus
e|-0---0---------------------------------------------------------|
B|-1---1---------------------------------------------------------|
G|-0---0---------------------------------------------------------|
D|-2---3---------------------------------------------------------|
A|-3---3---------------------------------------------------------|
E|---------------------------------------------------------------|
Intro
Verse:
   C Am7 Fmaj7 G   C   C  Am7  Dm  G
e|-0---0---0---3---0---0---0---1---3-----------------------------|
B|-1---1---1---3---1---1---1---3---3-----------------------------|
G|-0---0---2---0---0---0---0---2---0-----------------------------|
D|-2---2---3---0---2---2---2---0---0-----------------------------|
A|-3---0---3---2---3---3---0-------2-----------------------------|
E|-------------3-------------------3-----------------------------|
 Fmaj7 C Am7 Fmaj7 C Am7 Fmaj7 G   C   C7
e|-0---0---0---0---0---0---0---3---0---0-------------------------|
B|-1---1---1---1---1---1---1---3---1---1-------------------------|
G|-2---0---0---2---0---0---2---0---0---3-------------------------|
D|-3---2---2---3---2---2---3---0---2---2-------------------------|
A|-3---3---0---3---3---0---3---2---3---3-------------------------|
E|-----------------------------3---------------------------------|
Chorus:
 Fmaj7 C  Am7  Em  Dm  G Fmaj7 C  Am7  Dm  C Am7 Fmaj7 G
e|-0---0---0---0---1---3---0---0---0---1---0---0---0---3---------|
B|-1---1---1---0---3---3---1---1---1---3---1---1---1---3---------|
G|-2---0---0---0---2---0---2---0---0---2---0---0---2---0---------|
D|-3---2---2---2---0---0---3---2---2---0---2---2---3---0---------|
A|-3---3---0---2-------2---3---3---0-------3---0---3---2---------|
E|-------------0-------3-------------------------------3---------|
Intro
Verse
Chorus
Interlude:
   C   C7
e|-0---0---------------------------------------------------------|
B|-1---1---------------------------------------------------------|
G|-0---3---------------------------------------------------------|
D|-2---2---------------------------------------------------------|
A|-3---3---------------------------------------------------------|
E|---------------------------------------------------------------|
Chorus
Outro:
   C  Csus C
e|-0---0---0-----------------------------------------------------|
B|-1---1---1-----------------------------------------------------|
G|-0---0---0-----------------------------------------------------|
D|-2---3---2-----------------------------------------------------|
A|-3---3---3-----------------------------------------------------|
E|---------------------------------------------------------------|
| /  slide up
| \  slide down
| h  hammer-on
| p  pull-off
| ~  vibrato
| +  harmonic
| x  Mute note

Click HERE To Download PDF