Wednesday, January 31, 2007

Twilight

Ok, here's the next one! It's titled Twilight, by Kotaro Oshio. It's a cool song, with a Spanish feel to it. This song was harder to learn because of the stretching and jumping around on the fret board. But it was fun nevertheless. Enjoy!



-----------------------------------------------------------------
TWILIGHT – Kotaro Oshio
-----------------------------------------------------------------
Tabbed by: Graham Choo
Email: da_tweens@yahoo.co.uk

Tuning: Standard

Verse 1:
Em B7/F# G G#aug Am D B7 E
e|-3-2-0-----|-------|-----------0-------------7-5-2h3p2p0-------|--------|-
B|-------0---|-----0-|---------0---3-1-0-1-0-1-------------3-----|--------|-
G|---------0-|-----2-|-------0-----------0---------------------2-|-2----1-|-
D|---------2-|-----1-|-----2---------------------0-------------3-|-3----3-|-
A|-----------|-------|-------------------0-------------------2---|--------|-
E|-------0---|-0-2---|-2-3-------4-------------------------------|----0---|-
     Am      D      G            C      F#              B7
e|---------3-2-----------------2-0---2---3---|-----3-2-0-----|--------------
B|-0-1-0-1-----4-3-1-0h1p0---0-------------2-|-2---2-----4-0-|--------------
G|---0---------------------3-------0---0---3-|-3---------2-2-|--------------
D|-----------0-------------------------------|---------------|--------------
A|---0---------------------------3-----------|-----------2-2-|--------------
E|-------------------3-------------------2---|---2-----------|--------------
Chorus:
Em B7/F# G G#aug Am D B7 Em
e|-3-2-0-----|-------|-----------0-------------7-5-7-8/10------|------------
B|-------0---|-----0-|---------0---3-1-0-1-0-1-----------------|------------
G|---------0-|-----2-|-------0-----------0------------------10-|-10---9-8-9-
D|---------2-|-----1-|-----2--------------------------------7--|-7----------
A|-----------|-------|-------------------0---------------------|------------
E|-------0---|-0-2---|-2-3-------4------------------------7----|----0-------
   Am      D7       G      C       Am      B7      Em
e|-10---|-8-4---5/8-8---|-7-2---3/7-7---5---3---2---0-----------------------
B|----8-|-----3-------5-|-----------------5---4---4-0-----------------------
G|----7-|-----5-------5-|-----3-------0---5---2-----0-----------------------
D|------|---0-------5---|---------------4-------------2---------------------
A|-0----|---------------|---3-------3-------2-----------2-------------------
E|------|---------------|---------------------------0-----3-0---------------
Pre-Chorus:
D7 G B7 B7/F# Em
e|-----------|-------------------|---------------|---------7-5-3-2-3-|------
B|-0-1-0-3---|---------3-1-0---0-|-0h1p0---0---0-|-0---0-4-----------|------
G|---2-----5-|-5-----5-------3---|-------3-----2-|-2-----------------|------
D|---------4-|-4---4-------------|-------------1-|-1-----------------|------
A|-------5---|-------------------|-----------2---|-------------------|------
E|-----------|---5-------3-------|---------------|---2-------0-------|------
         F#                             B7  Am  G  B7/F# B7
e|-0-0-2-3---|-----3-2-0-3---|-----3-2-0------------------------------------
B|---------2-|-2---2-----2-2-|-2---2-----4-0-1---0---------0----------------
G|---------3-|-3-----------3-|-3---------2-----2---0-2-----2----------------
D|-----------|---------------|-------------------------1---1----------------
A|-----------|---------------|-----------2---0-----------2------------------
E|-------2---|---2-------2---|---2---------------3---2----------------------
Chorus
Interlude:
Em B7/F# G G#dim Am D7 G
e|-0-0-|-------|---------------------|-----|-------|------------------------
B|-0-0-|-----0-|---------------------|-----|-------|------------------------
G|-0-0-|-----2-|-------0-----4---5-5-|-5-5-|---4-4-|-4-4-4-0----------------
D|-2-2-|-----1-|-----2-------0---5-5-|-4-4-|---4-4-|-4-4-4-0----------------
A|-2-2-|-------|---------------------|-5---|-------|------------------------
E|-0-0-|-0-2---|-2/3-----3/4---4-5---|-----|-0-3---|-3-3-3------------------
   Am    D7      G    C        B7/F#  B7    Em
e|-----|-----|-------|-----|------------------------------------------------
B|-----|-----|-------|-----|------------------------------------------------
G|-5-5-|-5-5-|---4-4-|-4---|-0-2-3-3---2-2---0------------------------------
D|-5-5-|-4-4-|---4-4-|-4-2-|-----2-2---1-1---2-2----------------------------
A|-----|-5---|-------|-3---|---------0-2---0-----2--------------------------
E|-5---|-----|-0-3---|-----|-----2-----------0-----3-0----------------------
Bridge:
Em B7/F# G G#aug Am D7 G
e|-------0---0-2-3p2-----2-----|-----------7---|---10---|-7\5-5---|---------
B|-0-2-4---0---------5-4---5---|---6-5-4-5---5-|-5----7-|-------3-|-3-------
G|---------------------------4-|-4-----------5-|-5----7-|-------4-|-4-------
D|---------------------------3-|-3-------------|---0----|---------|---------
A|-----------------------------|-----------0---|--------|---------|---------
E|-------0-------2---------3---|---4-----------|--------|-----3---|---3-----
         Am     D7      G       C       F#              B7
e|-5-3-2-3---|---2-2/5-2-2---|---0-----------|---------------------7--------
B|-3-------1-|-1-1-1/4-1---0-|-----3-1-0-2-2-|-2-----0---0---0-------10-8-7-
G|-4-------0-|-0-2-2/5-2---0-|-----------3-3-|-3---3---3---2---2/8----------
D|-----------|---0-0-0-0-----|---------------|------------------------------
A|-------0---|---------------|-0-3-----------|-----------2------------------
E|-----------|-----------3---|-----------2---|---2--------------------------
   Em      B7/F#      G      G#aug    Am      D7      G
e|-0---|---2h3p2-----2-3---|---4-5/7-7-8-8-|-8-8-8-|-8-7-7-|-7-7-7----------
B|---0-|-0-------5-4-------|-----------5-5-|-5-7-7-|-7-0-0-|-0-0-0----------
G|---0-|-0---------------4-|-4-4-5/7-7-----|-------|-------|-------0--------
D|-----|-----------------3-|-3-------------|---0---|-------|----------------
A|-----|-------------------|-----------0---|-------|-------|----------------
E|-0---|---2-----------3---|---------------|-------|---3---|-3---3----------
   Am      B7     Em        C       F#      B7          Em
e|-5---|---3---|---------|---0---2---3---|---2h3p2-----2-0------------------
B|---5-|-5---4-|-4-4/7-7-|-7-----------2-|-2-------5-4---0------------------
G|---5-|-5---2-|-2-4/7-7-|-7---0---0---3-|-3-------------0------------------
D|-4---|-------|---------|---------------|-----------------2----------------
A|-----|---2---|---------|---3-----------|---2---------------2--------------
E|-----|-------|---0-----|-----------2---|---------------0-----3-0----------
Pre-Chorus
Chorus
              Am      D7       G      C       Am      B7      Em
e|-8/10-10-10-10---|-8-4---5/8-8---|-7-2---3/7-7---5---3---2---0------------
B|---------------8-|-----3-------5-|-----------------5---4---4-0------------
G|---------------7-|-----5-------5-|-----3-------0---5---2-----0------------
D|-----------------|---0-------5---|---------------4-------------2----------
A|------------0----|---------------|---3-------3-------2-----------2--------
E|-----------------|---------------|---------------------------0-----3-0----
              Am      D7       G      C       Am      B7      Em
e|-8/10-10-10-10---|-8-4---5/8-8---|-7-2---3/7-7---5---3---2---0---------5+-
B|---------------8-|-----3-------5-|-----------------5---4---4-0---------5+-
G|---------------7-|-----5-------5-|-----3-------0---5---2-----0---------5+-
D|-----------------|---0-------5---|---------------4-------------2----------
A|------------0----|---------------|---3-------3-------2-----------2--------
E|-----------------|---------------|---------------------------0-----3-0----
| /  slide up
| \ slide down
| h hammer-on
| p pull-off
| ~ vibrato
| + harmonic
| x Mute note
| | Muted slap

6 comments:

Renhao said...

can you do me a favour and drop the word document into our MSN sharing folder when you complete a tab? the view's screwed up on my com.

Peter Choi said...

God has given you a great talent! And I am a fan and a fellow christian. I have recently picked up the guitar and ive been able to learn much from your tutorials and your playing. I play the drums for my youth group and i always had this inner desire to play guitar as well. And after seeing you play it seems i have much to learn. If you can id like some assistance with my playing over MSN preferrably.

Anonymous said...

how would you rate this song in terms of difficulty? would it be more intermediate or expert? because it looks like some of it is repeated motion.

or maybe i'm blind. i don't know. but an answer would be nice before i try learning the song. it might be too early for me XD

sounds awesome though

Graham Choo said...

Hey, on a difficulty rating out of 10, I'd give this song a 7, between intermediate and expert level

The song's actually pretty ok, except for a lot of sliding about at certain parts (which took me a while to get used to). Moreover, the portion from 1:26 to 2:01 is pretty hard too. I can't even remember how to play it without having to refer back to the video... haha!

Bunta Takeshi said...

hello :D
could make a instructional video ?
i really wanna play this song .

Anonymous said...

could you try and make a tutorial for this video