Sunday, February 11, 2007

Here, There, And Everywhere

Ok guys! Here's the next song of the week! It's a song that was originally sung by The Beatles! Classic in my opinion. This guitar rendition's done by Martin Taylor anyway, and I first chanced upon it 3 years ago when my friend passed my an mp3 version of it. I then had the task of learning the song, 'cause my eldest brother requested for my twin brother and I to perform it during his wedding. Tabs are below should you attempt to learn it. Difficulty scale's 10/10 in my opinion, only because I had to learn it straight from the mp3 and tabs. No video to help =(

Also, I just realised that this is the only Martin Taylor rendition on YouTube. Yay! Feels good being first at something =P



---------------------------------------------------------------------
HERE, THERE, AND EVERYWHERE – Martin Taylor
---------------------------------------------------------------------
Tabbed by: Graham Choo
Email: da_tweens@yahoo.co.uk

Tuning: Standard

e|-5-----5-5-----4-2-2-------3-----2-----2---4---5-----------9---------|
B|-7---7---4---6-----5-----5---------2-3---5---7-----------6-----------|
G|-6-6-----5-5-------4---4-------3-----------------------6-------------|
D|---------------------2-------2-----------------------6---------------|
A|-6-----------------4-----------------2---4---5-----5-----------------|
E|---------4-----------------2---------------------0-------------------|
e|-----------0---5/7-5---------0---0-----------------------------------|
B|-----0---2---0-----------5h7---0---0---2---3-5-7---------------------|
G|-2-----2-----2-------7---------6---2-2-------------2-4---------------|
D|---2---0---------------7-------6---0-2---3-------4-------------------|
A|-0---2---4---------5---------0---2---4---------5---------------------|
E|---------------------------------------------------------------------|
e|-----------------------------------------------------0---------------|
B|-2---3-2-2-----2---3-2-2-----3-------2-9-----7-0---------------------|
G|-4-4-----4-4-4---4-----4---4---2-4-----9-9-8-------2---2---1---------|
D|-4-4-----3-3-4---4-----3-3---------2---7---7-------0-----4-2-2-------|
A|---------------------------------------------------------------------|
E|-4-------3---4---------3-------2-------7---------1-----0-------------|
e|-----0-------------5/7-5---------0---0-0-----------------------------|
B|-------0-----2---5-----------5h7---0-----0---2-----3-5-7-------------|
G|-2-------2-4---4---------7---------6-----2-4---4-------6---2-4-------|
D|---2-----0-2---2-----------7-------6-----0-2---2/3-------4-----------|
A|-0-----2---4-----------5---------0-----2---4-----------5-------------|
E|---------------------------------------------------------------------|
e|-----------------------------------------------------------------3---|
B|-2---3-2-2-------2---3-2-2-----3-------2-9-----7-0-----0-1-----3---6-|
G|-4-4-----4-4---4---4-----4---4---2---4---9-9-8-----2-1-----2/4-------|
D|-4-4-----3-3---4---4-----3-3-------2-----7---7-----4-2---------------|
A|---------------------------------------------------------------------|
E|-4-------3---3-4---------3-------2-------7---------------1-----3-----|
e|---3---------0-------------------------------------------------------|
B|-5---5---------3---3-5-6-3-0-0--1-3-5--------------------------------|
G|-4---4-----------5-----5---2-2--1---5-5------------------------------|
D|-5---------5------------------------7---7-6--------------------------|
A|-3-------0---------5-------2---0----0--------------------------------|
E|-------3---------------5---------------------------------------------|
e|-------------------0-1-----------0-----------------------------------|
B|---5-------5-----3-----3-0-0-2-3---2---------------------------------|
G|-----5-------5---2-------1-1-2-4-----2-------------------------------|
D|-6-----6-5-----5-----0-----------------------------------------------|
A|-----------------2---------------0-----------------------------------|
E|-------------------------0-------------------------------------------|
e|-------------0---5/7-5---------0-----0-0-----------------------------|
B|---------0-2---0-----------5h7-----0-------0-----2-----3-5-7-----4---|
G|-------2-------2-------7-----------6-------2---4---4-------6---2-----|
D|-----0-------------------7-------6-------0---0-2---2/3-------4-------|
A|-0-2-------4---------5---------0-------2-------4-----------5---------|
E|---------------------------------------------------------------------|
e|---------------------------------------------------------------------|
B|-2---3-2-2-------2---3-2-2-------------2-9-----7-0-------------------|
G|-4-4-----4-4---4---4-----4---4---2---4---9-9-8-----------2---1-------|
D|-4-4-----3-3---4---4-----3-3---3-2-2-----7---7---------0---4---2-0---|
A|-----------------------------------------------------3---------------|
E|-4-------3---3-4---------3-------2-------7---------1-----0---0-------|
e|-----0-------------------------------0-------------7-----------------|
B|---------0-----0-5-----2---------------0-----0---2---7---------------|
G|-2-----2-----2-------4---2-----2---2-------2---4---------------------|
D|---2-------0-------2-----0-4-2---2-------0---------------------------|
A|-0-------2-------4-------------0-------2-------4---6-----------------|
E|---------------------------------------------------------------------|
e|-5-----5-5---4-------------------0-------0---------------------------|
B|-----7---4-6---7-5---------0-2-3-------0---0-------------------------|
G|-----6---5-5-----4---4-1-2-----------2-------2-----------------------|
D|---7-------------2-2-----------------0---------0---------------------|
A|-5---------------4-----------------3---------------------------------|
E|---------4---------------2-------1-----------------------------------|
e|-----0-------------------0-------0-----------------------------------|
B|-------------2-0-------2---2-----2-----------------------------------|
G|-2-----2-1-----------4-------4---4-----------------------------------|
D|---4-------2-------2-----------2-2-----------------------------------|
A|-----------------0---------------0-----------------------------------|
E|-0-------0-----------------------------------------------------------|
| /  slide up
| \ slide down
| h hammer-on
| p pull-off
| ~ vibrato
| + harmonic
| x Mute note

3 comments:

NoeL said...

Hey,

I'm trying to learn this song but using tabs without knowing the chords (shapes) fingering becomes quite challenging.

Can you add in the chords?

Do you think you could do a simple piece for "Be Thou My Vision?" - with tabs and chords??

FightingNemo - Youtube.

NoeL said...

Hey,

I'm trying to learn this song but using tabs without knowing the chords (shapes) fingering becomes quite challenging.

Can you add in the chords?

Do you think you could do a simple piece for "Be Thou My Vision?" - with tabs and chords??

Graham Choo said...

Hey noel,

Actually I had the same problem too when I had to learn the song directly from mp3 and tabs alone. The video's supposed to make it easier for you to see the chord shapes.

For this song, the chords played are not conventional at all. It may be a G chord, but the structure is totally different from how a normal G looks like, so i guess learning from the video would be the best option.

I'll get my brother to post up "Be Thou My Vision" soon. Will be tabbing out his vids and putting them up on my blog, so be sure to look out for that :P