Monday, March 26, 2007

Fallen

By request by Joel, here's the tabs for the song titled Fallen, by Lauren Wood. Pretty cool song that I learned a few years back. Has a bossanova beat to it. The tabs are for what I'm playing (the guy to the left of the video). Dan plays something different indicated by "OR" in the tabs. Enjoy!

The first video is the song itself. The second is the instructional.





-----------------------------------------------------------------
FALLEN – Lauren Wood
-----------------------------------------------------------------
Tabbed by: Graham Choo
Email: da_tweens@yahoo.co.uk

Tuning: Standard

Intro:
A A/F# D/B E7
e|---------------------|-----|-------|-----|-------|-----|---------
B|-------------5-----5-|-0-0-|-----0-|---3-|-----3-|-3-3-|---------
G|-------------6-----6-|-2-2-|-----2-|---2-|-----2-|-1-1-|---------
D|-------------6-----6-|-2-2-|---2---|---0-|---0---|-0-0-|---------
A|-4-5-5/7-------------|-----|-------|-0-2-|-2-----|-----|---------
E|---------0-5---5-5---|-2---|-2-----|-----|-------|-0---|-0-------
             A          A/F#            D/B    E7    A
e|---------------------|-----|-------|-----|-------|-----|---------
B|-------------5-----5-|-0-0-|-----0-|---3-|-----3-|-0-0-|---------
G|-------------6-----6-|-2-2-|-----2-|---2-|-----1-|-2-2-|---------
D|-------------6-----6-|-2-2-|---2---|---0-|-----0-|-2-2-|---------
A|-4-5-5/7-------------|-----|-------|-0-2-|-2-----|-0---|-0-------
E|---------0-5---5-5---|-2---|-2-----|-----|---0---|-----|---------
OR
             A       F#m           Bm        E
e|-----------------------|-----------|-----------|-----------------
B|-------------0-------2-|---------3-|-3-------0-|-----------------
G|-------------2-------2-|---------2-|-2-------1-|-----------------
D|-------------2-------4-|---------4-|-4-------2-|-----------------
A|-4-5-5/7---0-----------|---4p3-0-2-|-2---------|-----------------
E|---------0-----0-1-2---|-2---------|---2p1-0---|-0---------------
             A       F#m         Bm    E    A
e|-----------------------|-----|---|------|-----|------------------
B|-------------0-------2-|---2-|-3-|----0-|---0-|------------------
G|-------------2-------2-|---2-|-2-|----1-|---2-|------------------
D|-------------2-------4-|---4-|-4-|----2-|---2-|------------------
A|-4-5-5/7---0-----------|-----|-2-|-2----|-0---|-0----------------
E|---------0-----0-1-2---|-2---|---|---0--|-----|------------------
Verse:
A A/F# D/B E7
e|---------------------|-----|-------|-----|-------|-----|---------
B|-------------5-----5-|-0-0-|-----0-|---3-|-----3-|-3-3-|---------
G|-------------6-----6-|-2-2-|-----2-|---2-|-----2-|-1-1-|---------
D|-------------6-----6-|-2-2-|---2---|---0-|---0---|-0-0-|---------
A|-4-5-5/7-------------|-----|-------|-0-2-|-2-----|-----|---------
E|---------0-5---5-5---|-2---|-2-----|-----|-------|-0---|-0-------
             A          A/F#            D/B    E7    A        
e|---------------------|-----|-------|-----|-------|-----|---------
B|-------------5-----5-|-0-0-|-----0-|---3-|-----3-|-0-0-|---------
G|-------------6-----6-|-2-2-|-----2-|---2-|-----1-|-2-2-|---------
D|-------------6-----6-|-2-2-|---2---|---0-|-----0-|-2-2-|---------
A|-4-5-5/7-------------|-----|-------|-0-2-|-2-----|-0---|-0-------
E|---------0-5---5-5---|-2---|-2-----|-----|---0---|-----|---------
             A          A/F#            D/B          E7
e|---------------------|-----|-------|-----|-------|-----|---------
B|-------------5-----5-|-0-0-|-----0-|---3-|-----3-|-3-3-|---------
G|-------------6-----6-|-2-2-|-----2-|---2-|-----2-|-1-1-|---------
D|-------------6-----6-|-2-2-|---2---|---0-|---0---|-0-0-|---------
A|-4-5-5/7-------------|-----|-------|-0-2-|-2-----|-----|---------
E|---------0-5---5-5---|-2---|-2-----|-----|-------|-0---|-0-------
             A          A/F#            D/B    E7    A     A7
e|---------------------|-----|-------|-----|-------|-----|-----|---
B|-------------5-----5-|-0-0-|-----0-|---3-|-----3-|-0-0-|-2-2-|---
G|-------------6-----6-|-2-2-|-----2-|---2-|-----1-|-2-2-|-0-0-|---
D|-------------6-----6-|-2-2-|---2---|---0-|-----0-|-2-2-|-2-2-|---
A|-4-5-5/7-------------|-----|-------|-0-2-|-2-----|-0---|-0---|-0-
E|---------0-5---5-5---|-2---|-2-----|-----|---0---|-----|-----|---
OR
             A        F#m          Bm        E
e|-----------------------|-----------|-----------|-----------------
B|-------------0-------2-|---------3-|-3-------0-|-----------------
G|-------------2-------2-|---------2-|-2-------1-|-----------------
D|-------------2-------4-|---------4-|-4-------2-|-----------------
A|-4-5-5/7---0-----------|---4p3-0-2-|-2---------|-----------------
E|---------0-----0-1-2---|-2---------|---2p1-0---|-0---------------
             A        F#m        Bm    E    A
e|-----------------------|-----|---|------|-----|------------------
B|-------------0-------2-|---2-|-3-|----0-|---0-|------------------
G|-------------2-------2-|---2-|-2-|----1-|---2-|------------------
D|-------------2-------4-|---4-|-4-|----2-|---2-|------------------
A|-4-5-5/7---0-----------|-----|-2-|-2----|-0---|-0----------------
E|---------0-----0-1-2---|-2---|---|---0--|-----|------------------
             A        F#m          Bm        E
e|-----------------------|-----------|-----------|-----------------
B|-------------0-------2-|---------3-|-3-------0-|-----------------
G|-------------2-------2-|---------2-|-2-------1-|-----------------
D|-------------2-------4-|---------4-|-4-------2-|-----------------
A|-4-5-5/7---0-----------|---4p3-0-2-|-2---------|-----------------
E|---------0-----0-1-2---|-2---------|---2p1-0---|-0---------------
             A       F#m         Bm    E    A     A7
e|-----------------------|-----|---|------|-----|---|--------------
B|-------------0-------2-|---2-|-3-|----0-|---0-|-2-|--------------
G|-------------2-------2-|---2-|-2-|----1-|---2-|-0-|--------------
D|-------------2-------4-|---4-|-4-|----2-|---2-|-2-|--------------
A|-4-5-5/7---0-----------|-----|-2-|-2----|-0---|-0-|--------------
E|---------0-----0-1-2---|-2---|---|---0--|-----|---|--------------

Chorus:
D A/C# D/B A A7
e|-2-|-----2-|-0-0-|-----0-|-----|-------|-----|-----|-------------
B|-2-|-----2-|-0-0-|-----0-|---3-|-----3-|-0-0-|-2-2-|-------------
G|-2-|---2---|-2-2-|---2---|---2-|-----2-|-2-2-|-0-0-|-------------
D|-0-|-0-----|-----|-------|---0-|---0---|-2-2-|-2-2-|-------------
A|---|-------|-4---|-4-----|-0-2-|-2-----|-0---|-0---|-0-----------
E|---|-------|-----|-------|-----|-------|-----|-----|-------------

D A/C# D/B E7
e|-2-|-----2-|-0-0-|-----0-|-------|-----|-2-4---------------------
B|-2-|-----2-|-0-0-|-----0-|---3-2-|-3-3-|-3-3---------------------
G|-2-|---2---|-2-2-|---2---|---2-2-|-2-2-|-1-1---------------------
D|-0-|-0-----|-----|-------|---0-0-|-0-0-|-------------------------
A|---|-------|-4---|-4-----|-0-2---|-2---|-------------------------
E|---|-------|-----|-------|-------|-----|-0-0---------------------
OR 
   D        A/C#         Bm       
e|-2-|---2-|-0-|-----0-|---|-------|--------------------------------
B|-3-|---3-|-0-|-----0-|-3-|-----3-|--------------------------------
G|-2-|---2-|-2-|---2---|-4-|-----4-|--------------------------------
D|-0-|-0---|---|-------|-4-|---4---|--------------------------------
A|---|-----|-4-|-4-----|-2-|-2-----|-0-7/9-7-6----------------------
E|---|-----|---|-------|---|-------|--------------------------------
   D        A/C#         Bm      E E7
e|-2-|---2-|-0-|-----0-|-2-2-2-2-0-0--------------------------------
B|-3-|---3-|-0-|-----0-|-3-3-3-3-0-3--------------------------------
G|-2-|---2-|-2-|---2---|-4-4-4-4-1-1--------------------------------
D|-0-|-0---|---|-------|-4-4-4-4-2-2--------------------------------
A|---|-----|-4-|-4-----|-2-2-2-2-2-2--------------------------------
E|---|-----|---|-------|---------0-0--------------------------------
Solo:
e|-------------------------------12--------------------------------
B|-----------------------10-9-10-10--------------------------------
G|----------------9-9h11----9-9------------------------------------
D|-----7-9p7-9/11--------------------------------------------------
A|-7h9-------------------------------------------------------------
E|-----------------------------------------------------------------
e|-12\10-9--10-----------------------------------------------------
B|-14\12-10-10-10/12-10-9-10---------------------------------------
G|----------------------9-9--9h11-9------9-------------------------
D|----------------------------------9h11---------------------------
A|-----------------------------------------------------------------
E|-----------------------------------------------------------------
e|-----------------------------------12----------------------------
B|-----------------------10-12-10^12----12v10-10-------------------
G|----------------9-9h11-------------------------------------------
D|-----7-9p7-9/11--------------------------------------------------
A|-7h9-------------------------------------------------------------
E|-----------------------------------------------------------------
e|------------------------------12---------------------------------
B|-12/14-12/14-12/13-12-10---10----10------------------------------
G|-------------------------9----------9----------------------------
D|-----------------------------------------------------------------
A|-----------------------------------------------------------------
E|-----------------------------------------------------------------
| /  slide up
| \ slide down
| h hammer-on
| p pull-off
| ~ vibrato
| + harmonic
| x Mute note
| | muted slap
| ^ bend up
| v bend down

10 comments:

blank said...

wow...this video was really good.

the harmonization of the voices was good too :D

razzle dazzle

Aliah the TV addict said...

i LOVE this song.

:)

Graham Choo said...

Haha! Ren Hao indicated to me that it's the kind of song people know they've heard before, but the don't know the title or who the singer is. Glad you love it :P

Kuria said...

wow, i love this song :) great job on the guitars and your voices are great as well!

mdsufei said...

heyy...nice vids...tanx 4 putting up the 2 vids...really appreciate it...

debbie said...

wow.. thanks so much for the instructionals. i'm a beginner picking up the guitar fr youtube videos and i must say u guys have helped me learn 2 songs! yaye! i love fallen and beautiful one. do post more!

Anonymous said...

hi.i really love lauren wood's song, though i'm only 16. and because of it, i am really determined to learn the guitar chords of the song. the problem is, i don't have enough knowledge on how to play the guitar. what i know as of now are simple, like A,C,D,E,G.i admit, i still don't know about the minor, the sharps etc. but i really want to learn.funny it may seem.:D
your youtube video really helped me, because, though i don't have enough knowledge about guitar, i try to follow what i see from the video, only, i am having trouble with the way you pluck the strings.i can't see it clearly.:( that's why i can't follow.oh, i may be embarrassing myself for this, but i hope you can help me.:(
thanks.and god bless.

~lia

Graham Choo said...

Hey, am glad that you're determined to learn the song. I apologise for the quality of the video and video position that makes seeing the plucking hand difficult.

Actually, if you understand how to read the tabs, you wouldn't have a problem knowing which strings to pluck. You can learn how to read tabs from these 2 link:

http://grahamchoo.blogspot.com/2007/08/how-to-read-tabs.html
http://basicsofguitar.blogspot.com/2009/01/h.html

Anonymous said...

hey maybe an instructional or something for the solo? cant seem to get it down on my own thnxx

adriana said...

me encanta la canciĆ³n y ustedes cantan precioso!!