Thursday, March 1, 2007

Made To Worship

Made To Worship (See The Morning Album Version)There are three videos to this post. The first is a minus one track covered by both of us. The second is the song itself covered by my brother, and the third is an instructional video. Tabs are below.





-----------------------------------------------------------------
MADE TO WORSHIP – Chris Tomlin
-----------------------------------------------------------------
Tabbed by: Graham Choo
Email: da_tweens@yahoo.co.uk

Tuning: Standard (Capo 2nd fret)
Intro:
e|---------------------------------------------------------------|
B|-------------3-------------------------------------------------|
G|-0-0-2-0-2/4---4-2-0-0-2-0-2/4-2-0-----------------------------|
D|-----------------------------------4-4h5p4-2-0-----------------|
A|---------------------------------------------------------------|
E|---------------------------------------------------------------| 
e|---------------------------------------------------------------|
B|-------------3-------------------------------------------------|
G|-0-0-2-0-2/4---4-2-0-0-2-0-2/4-2-0-----------------------------|
D|-----------------------------------4-4h5p4-2-0-----------------|
A|---------------------------------------------------------------|
E|---------------------------------------------------------------| 
OR 
   G  D/F# C9  C9 D/B D/F# G  D/F# C9  C9 D/B D/F#
e|-3---3---3---3---3---3---3---3---3---3---3---3-----------------|
B|-3---3---3---3---3---3---3---3---3---3---3---3-----------------|
G|-0---2---0---0---2---2---0---2---0---0---2---2-----------------|
D|-0---0---2---2---0---0---0---0---2---2---0---0-----------------|
A|-2---0---3---3---2---0---2---0---3---3---2---0-----------------|
E|-3---2---------------2---3---2---------------2-----------------|
Verse:
   G                     D/F#
e|---------3-----3---------------0-------------------------------|
B|-------3-----3---3-----------3---3-----------------------------|
G|-----0-----0-------0-------2-------2---------------------------|
D|---0---------------------0---------------0---------------------|
A|-------------------------------------0h2-----------------------|
E|-3-------------------0h2---------------------------------------| 
   Em                C9         
e|---------0-------------------0-----2---------------------------|
B|-------3---3-------------3-----3-----3-------------------------|
G|-----0-------0---0-----0---0-----0-----0-----------------------|
D|---4-----------4-----2-----------------------------------------|
A|-------------------3-------------------------------------------|
E|-0-------------------------------------------------------------| 
   G                     D/F#
e|---------3-----3---------------0-------------------------------|
B|-------3-----3---3-----------3---3-----------------------------|
G|-----0-----0-------0-------2-------2---------------------------|
D|---0---------------------0---------------0---------------------|
A|-------------------------------------0h2-----------------------|
E|-3-------------------0h2---------------------------------------| 
   Em                C9         
e|---------0-----------------0-----2h3---------------------------|
B|-------3---3-------------3---3-------3-------------------------|
G|-----0-------0---0-----0-------0-------------------------------|
D|---4-----------4-----2-----------------------------------------|
A|-------------------3-------------------------------------------|
E|-0-------------------------------------------------------------| 
OR 
   G  D/F# Em  C9  G  D/F# Em  C9 Dsus
e|-3---3---3---3---3---3---3---3---3-----------------------------|
B|-3---3---3---3---3---3---3---3---3-----------------------------|
G|-0---2---0---0---0---2---0---0---2-----------------------------|
D|-0---0---2---2---0---0---2---2---0-----------------------------|
A|-2---0---2---3---2---0---2---3---------------------------------|
E|-3---2---0-------3---2---0-------------------------------------| 
Pre-Chorus:
   C9  D  Dsus       C9  D  Dsus
e|-3---2---3-3-2-0---3---2---3-3-2-0-----------------------------|
B|-3---3---3-------3-3---3---3-------3---------------------------|
G|-0---2---2---------0---2---2-----------------------------------|
D|-2---0---0---------2---0---0-----------------------------------|
A|-3-----------------3-------------------------------------------|
E|---------------------------------------------------------------| 
OR 
   C9 Dsus C9 Dsus C9
e|-3---3---3---3---3---------------------------------------------|
B|-3---3---3---3---3---------------------------------------------|
G|-0---2---0---2---0---------------------------------------------|
D|-2---0---2---0---2---------------------------------------------|
A|-3-------3-------3---------------------------------------------|
E|---------------------------------------------------------------| 
Chorus:
e|---3-2-3-2-3-2-0-2-0-----3-2-3-2-3-2-0-2-0---------------------|
B|-3-3-3-3-3-3-3-3-3-3-3-3-3-3-3-3-3-3-3-3-3-3-------------------|
G|-0-0-0-0-0-0-0-0-0-0-0-0-0-0-0-0-0-0-0-0-0-0-------------------|
D|---------------------------------------------------------------|
A|---------------------------------------------------------------|
E|---------------------------------------------------------------|
e|---3-2-3-2-3-2-0-2-0-----3-2-3-2-3-2-0-2-0---------------------|
B|-3-3-3-3-3-3-3-3-3-3-3-3-3-3-3-3-3-3-3-3-3-3-------------------|
G|-0-0-0-0-0-0-0-0-0-0-0-0-0-0-0-0-0-0-0-0-0-0-------------------|
D|---------------------------------------------------------------|
A|---------------------------------------------------------------|
E|---------------------------------------------------------------| 
e|---3-2-3-2-3-2-0-2-0-----3-2-3-2-3-2-0-2-0---------------------|
B|-3-3-3-3-3-3-3-3-3-3-3-3-3-3-3-3-3-3-3-3-3-3-------------------|
G|-0-0-0-0-0-0-0-0-0-0-0-0-0-0-0-0-0-0-0-0-0-0-------------------|
D|---------------------------------------------------------------|
A|---------------------------------------------------------------|
E|---------------------------------------------------------------| 
e|---3-2-3-2-3-2-0-2-0-----3-2-3-2-3-2-0-2-0---------------------|
B|-3-3-3-3-3-3-3-3-3-3-3-3-3-3-3-3-3-3-3-3-3-3-------------------|
G|-0-0-0-0-0-0-0-0-0-0-0-0-0-0-0-0-0-0-0-0-0-0-------------------|
D|---------------------------------------------------------------|
A|---------------------------------------------------------------|
E|---------------------------------------------------------------| 
OR 
   G  D/G  G   C9 D/C  C9 Am7 D7/A Am7 Dsus  
e|-3---2---3---3---2---3---3---2---3---3---2---0---2-------------|
B|-3---3---3---3---3---3---1---1---1---3---3---3---3-------------|
G|-0---0---0---0---0---0---0---0---0---2---2---2---2-------------|
D|-0---0---0---2---0---0---2---2---2---0---0---0---0-------------|
A|-2---0---0---3---3---3---0---0---0-----------------------------|
E|-3---3---3-----------------------------------------------------| 
   G  D/G  G   C9 D/C  C9 Am7 D7/A Am7 Dsus  
e|-3---2---3---3---2---3---3---2---3---3---2---0---2-------------|
B|-3---3---3---3---3---3---1---1---1---3---3---3---3-------------|
G|-0---0---0---0---0---0---0---0---0---2---2---2---2-------------|
D|-0---0---0---2---0---0---2---2---2---0---0---0---0-------------|
A|-2---0---0---3---3---3---0---0---0-----------------------------|
E|-3---3---3-----------------------------------------------------| 
Intro
Verse
Pre-Chorus
Chorus
Bridge:
e|---------------------------------------------------------------|
B|-7-8-10-8-8-7-----7-8-10-8-8-7---------------------------------|
G|-7-7-7--7-7-7-9-7-7-7-7--7-7-7-7-9-7---------------------------|
D|---------------------------------------------------------------|
A|---------------------------------------------------------------|
E|---------------------------------------------------------------| 
e|----------------------10---------------------------------------|
B|-7-8-10-8-8-7-----7-8-8----------------------------------------|
G|-7-7-7--7-7-7-9-7-7-7-7----------------------------------------|
D|---------------------------------------------------------------|
A|---------------------------------------------------------------|
E|---------------------------------------------------------------| 
e|---------------------------------------------------------------|
B|-7-8-10-8-8-7-----7-8-10-8-8-7---------------------------------|
G|-7-7-7--7-7-7-9-7-7-7-7--7-7-7-7-9-7---------------------------|
D|---------------------------------------------------------------|
A|---------------------------------------------------------------|
E|---------------------------------------------------------------| 
e|----------------------10---------------------------------------|
B|-7-8-10-8-8-7-----7-8-8----------------------------------------|
G|-7-7-7--7-7-7-9-7-7-7-7----------------------------------------|
D|---------------------------------------------------------------|
A|---------------------------------------------------------------|
E|---------------------------------------------------------------| 
OR 
  Am7 D/B  C9 Dsus D  Dsus    Am7 D/B  C9 Dsus
e|-3---3---3---3---2---3---3---3---3---3---3---------------------|
B|-1---3---3---3---3---3---3---1---3---3---3---------------------|
G|-0---2---0---2---2---2---2---0---2---0---2---------------------|
D|-2---0---2---0---0---0---0---2---0---2---0---------------------|
A|-0---2---3-------------------0---2---3-------------------------|
E|---------------------------------------------------------------| 
   G   C9 Am7 Dsus
e|-3---3---3---3-------------------------------------------------|
B|-3---3---1---3-------------------------------------------------|
G|-0---0---0---2-------------------------------------------------|
D|-0---2---2---0-------------------------------------------------|
A|-2---3---0-----------------------------------------------------|
E|-3-------------------------------------------------------------| 
Chorus 2x
Intro
| /  slide up
| \  slide down
| h  hammer-on
| p  pull-off
| ~  vibrato
| +  harmonic
| x  Mute note

Click HERE To Download PDF

9 comments:

Jeff said...

Hey Graham I couldnt help but notice, but at the strumming part of the verse, before the Pre-chorus, One of the G notes are incorrect. I think you placed a 3 instead of a 2.

Graham Choo said...

Hi Jeff! I'm glad that you pointed out that error to me. I've changed it :) Always glad to have people looking through the tabs and finding inconsistencies should there be any. Thanks once again :)

Jeff said...

Im a bit confused. I'm learning how to play from your instructional video and the prechorus is different from the video. In the video the prechorus goes Am D Am C and then a chord that i dont know what its called or how to play. I was wondering, how do you play the C and the unknown chord? Thanks in advance and God Bless you!

Graham Choo said...

Hey Jeff, yeah the minus one version's played a little differently from the other. I tabbed it out according to the minus one.
The unknown chord you're looking for is actually just a D. So the pre-chorus goes like this: Am D Am C D
I guess the difference in chords just goes to show that there are a variety of ways you can play songs. Always fun to experiment :) God bless

Anonymous said...

Nice work! It sounds extremely good! .:-:.

Jim said...

Hello Graham,


the guitar strumming of this song is these: DD UDUD DD UDUD
ist that correct?

D=Down
U=Up

thanks,

Jim

Graham Choo said...

Hey jim,
The strumming pattern should be:
D D UDUDD DU
Have fun learning the song :)

SonicNinja12 said...

all i have 2 say 4 the duet is :

That was awsome. If only i could play like that. I

Dabby said...

I just wanted to say how amazing you are. Thank you so much for posting all the chord charts for these songs. It's really hard at times to find the right chords through Google searches. I'm glad I came across your Blogger account :3

God Bless,
Dabs