Saturday, May 26, 2007

As The Deer

This song is really classic, and almost fits into the hymn category. I don't really know who the original singer is, so I just took the first name I found on the Internet - Martin Nystrom.

This song has a combination of plucking and strumming. First verse and chorus are plucked, while the second verse and chorus are strummed. Tabs are below.





-----------------------------------------------------------------
AS THE DEER – Martin Nystrom
-----------------------------------------------------------------
Tabbed by: Graham Choo
Email: da_tweens@yahoo.co.uk

Tuning: Standard

Intro:
   D       D/A     D/Bm    D/F#    G       D/A     D       D/A
e|-----0-------0-------0-------0-------3-------0-------0-------0-----|
B|-----3-------3-------3-------3-------3-------3-------3-------3-----|
G|---2---2---2---2---2---2---2---2---0---0---2---2---2---2---2---2---|
D|-0-----------------------------------------------0-----------------|
A|---------0-------2-----------------------0---------------0---------|
E|-------------------------2-------3---------------------------------| 
Verse 1:
   D       D/A     D/Bm    D/F#    G       D/A     D        D/C#     
e|-----0-------0-------0-------0-------3-------0-------0-------------|
B|-----3-------3-------3-------3-------3-------3-------3-----0-------|
G|---2---2---2---2---2---2---2---2---0---0---2---2---2---2---2-------|
D|-0-----------------------------------------------0-------0---------|
A|---------0-------2-----------------------0-----------------4-------|
E|-------------------------2-------3---------------------------------| 
Chorus 1:
   Bm      Bm      G       D       G       G       Em      F#      F#
e|-----2-------3-------3-------0-------3-------3-------0-----------2-|
B|-----3-------3-------3-------3-------3-------3-------0---------2-2-|
G|---4---4---4---4---0---0---2---2---0---0---0---0---0---0-----3---3-|
D|-------------------------0---------------------------------4-----4-|
A|-2-------2-------------------------------------------------------4-|
E|-----------------3---------------3-------3-------0-------2-------2-| 
   D       D/A     D/Bm    D/F#    G       D/A     D       D/A
e|-----0-------0-------0-------0-------3-------0-------0-------0-----|
B|-----3-------3-------3-------3-------3-------3-------3-------3-----|
G|---2---2---2---2---2---2---2---2---0---0---2---2---2---2---2---2---|
D|-0-----------------------------------------------0-----------------|
A|---------0-------2-----------------------0---------------0---------|
E|-------------------------2-------3---------------------------------| 
Verse 2:
   D  D/A  Bm F#m  G  D/A  D  D/A  D  D/A  Bm F#m  G   A   D  D/C#
e|-0---0---2---2---3---0---0---0---0---0---2---2---3---0---0---0-----|
B|-3---3---3---2---3---3---3---3---3---3---3---2---3---3---3---0-----|
G|-2---2---4---2---0---2---2---2---2---2---4---2---0---2---2---2-----|
D|-0---2---4---4---0---2---0---2---0---2---4---4---0---2---0---0-----|
A|-----0---2---4---2---0-------0-------0---2---4---2---0-------4-----|
E|-------------2---3---------------------------2---3-----------------| 
Chorus 2:
   Bm  G   D   G   Em  F#  D  D/A  Bm F#m  G  D/A  D
e|-2---3---2---3---0---2---0---0---2---2---3---0---0-----------------|
B|-3---3---3---3---0---2---3---3---3---2---3---3---3-----------------|
G|-4---0---2---0---0---3---2---2---4---2---0---2---2-----------------|
D|-4---0---0---0---2---4---0---2---4---4---0---2---0-----------------|
A|-2---2-------2---2---4-------0---2---4---2---0---------------------|
E|-----3-------3---0---2---------------2---3-------------------------| 
| /  slide up
| \  slide down
| h  hammer-on
| p  pull-off
| ~  vibrato
| +  harmonic
| x  Mute note

Click HERE To Download PDF

6 comments:

Anson said...
This comment has been removed by the author.
Anson said...

Good job, can you play in the key Salvador plays in.

Anonymous said...

Beautiful Daniel - thank you

Anonymous said...

There's a mistake in your tabbing. You said in your video that in the first chorus, the first D is 232000 and not 023000.

Great video though, keep up the great of works in God bro!

Anonymous said...

There's a mistake in your tabbing. You said in your video that in the first chorus, the first D is 232000 and not 023000.

Great video though, keep up the great of works in God bro!
~Kuda

Graham Choo said...

Hey Kuda, the instructional video did say 0232 for the chorus. I followed the guitar video though. Either way, you can play either 0232 or 0230. Both will still sound as good :) Thanks for informing me anyway!