Saturday, August 10, 2013

God Of Wonders

God Of Wonders (Album Version)A Christian song written by Steve Hindalong and covered by many bands like Third Day, Paul Baloche, Caedmon's Call and many more. Beautiful song which declares the awesomeness of our God, the Creator of all things.

The three videos below are the song itself, an instructional, and a duos cover that we recently did. Tabs below are based on the duos video, which was according to Third Day's style.







-----------------------------------------------------------------
GOD OF WONDERS – Steve Hindalong
-----------------------------------------------------------------
Tabbed by: Graham Choo
Email: da_tweens@yahoo.co.uk

Tuning: Standard
Intro:
  Dsus Em  C9 Dsus Em   C9
e|-3---3---3---3---3---3-------------------------------------------|
B|-3---3---3---3---3---3-------------------------------------------|
G|-2---0---0---2---0---0-------------------------------------------|
D|-0---2---2---0---2---2-------------------------------------------|
A|-----2---3-------2---3-------------------------------------------|
E|-----0-----------0-----------------------------------------------| 
OR
  Dsus Em  C9 Dsus Em  C9
e|-3---3---3---3---3---3-------------------------------------------|
B|-3---3---3---3---3---3-------------------------------------------|
G|-2---0---0---2---0---0-------------------------------------------|
D|-0---2---2---0---2---2-------------------------------------------|
A|-----2---3-------2---3-------------------------------------------|
E|-----0-----------0-----------------------------------------------|
Verse 1:
  Dsus Em  C9 Dsus Em  C9 Dsus Em  C9 Dsus Em  C9
e|-3---3---3---3---3---3---3---3---3---3---3---3-------------------|
B|-3---3---3---3---3---3---3---3---3---3---3---3-------------------|
G|-2---0---0---2---0---0---2---0---0---2---0---0-------------------|
D|-0---2---2---0---2---2---0---2---2---0---2---2-------------------|
A|-----2---3-------2---3-------2---3-------2---3-------------------|
E|-----0-----------0-----------0-----------0-----------------------| 
OR
  Dsus Em  C9 Dsus Em  C9 Dsus Em  C9 Dsus Em  C9
e|-3---3---3---3---3---3---3---3---3---3---3---3-------------------|
B|-3---3---3---3---3---3---3---3---3---3---3---3-------------------|
G|-2---0---0---2---0---0---2---0---0---2---0---0-------------------|
D|-0---2---2---0---2---2---0---2---2---0---2---2-------------------|
A|-----2---3-------2---3-------2---3-------2---3-------------------|
E|-----0-----------0-----------0-----------0-----------------------|
Chorus 1:
   G Dsus Am7  C   G Dsus Am7  C   C   D   C   C   D   C
e|-3---3---3---3---3---3---3---3---0---0---0---0---0---0-----------|
B|-3---3---1---1---3---3---1---1---1---3---1---1---3---1-----------|
G|-0---2---0---0---0---2---0---0---0---0---0---0---0---0-----------|
D|-0---0---2---2---0---0---2---2---2---4---2---2---4---2-----------|
A|-2-------0---3---2-------0---3---3---5---3---3---5---3-----------|
E|-3---------------3---------------3---5---3---3---5---3-----------| 
OR
e|-----3---2---0-------3---2---0-------3---2---5-------3---2---0---|
B|---3---3---3---3---3---3---3---3---3---3---3---3---3---3---3---3-|
G|-0---------------0---------------0---------------0---------------|
D|-----------------------------------------------------------------|
A|-----------------------------------------------------------------|
E|-----------------------------------------------------------------|
e|-----3---2---0-------3---2---0-------3---2---5-------3---2---0---|
B|---3---3---3---3---3---3---3---3---3---3---3---3---3---3---3---3-|
G|-0---------------0---------------0---------------0---------------|
D|-----------------------------------------------------------------|
A|-----------------------------------------------------------------|
E|-----------------------------------------------------------------|
   C9  D   C9      C9  D   C9
e|-0---0---0-0-----0---0---0-0-------------------------------------|
B|-3---3---3---3---3---3---3---3-----------------------------------|
G|-0---2---0-----0-0---2---0-----0---------------------------------|
D|-2---0---2-------2---0---2---------------------------------------|
A|-3-------3-------3-------3---------------------------------------|
E|-----------------------------------------------------------------|
Interlude:
  Dsus Em  C9 Dsus Em  C9
e|-3---3---3---3---3---3-------------------------------------------|
B|-3---3---3---3---3---3-------------------------------------------|
G|-2---0---0---2---0---0-------------------------------------------|
D|-0---2---2---0---2---2-------------------------------------------|
A|-----2---3-------2---3-------------------------------------------|
E|-----0-----------0-----------------------------------------------| 
OR
e|-----7-------7-------7-------8-7---------------------------------|
B|---8---8---8---8---8---8---8-----8-------------------------------|
G|-7-------7-------7-------7---------------------------------------|
D|-----------------------------------------------------------------|
A|-----------------------------------------------------------------|
E|-----------------------------------------------------------------| 
e|-----7-------7-------7-------8-7---------------------------------|
B|---8---8---8---8---8---8---8-----8-------------------------------|
G|-7-------7-------7-------7---------------------------------------|
D|-----------------------------------------------------------------|
A|-----------------------------------------------------------------|
E|-----------------------------------------------------------------|
Verse 2:
  Dsus Em  C9 Dsus Em  C9 Dsus Em  C9 Dsus Em  C9
e|-3---3---3---3---3---3---3---3---3---3---3---3-------------------|
B|-3---3---3---3---3---3---3---3---3---3---3---3-------------------|
G|-2---0---0---2---0---0---2---0---0---2---0---0-------------------|
D|-0---2---2---0---2---2---0---2---2---0---2---2-------------------|
A|-----2---3-------2---3-------2---3-------2---3-------------------|
E|-----0-----------0-----------0-----------0-----------------------| 
OR
e|-----7-------7-------7-------8-7---------------------------------|
B|---8---8---8---8---8---8---8-----8-------------------------------|
G|-7-------7-------7-------7---------------------------------------|
D|-----------------------------------------------------------------|
A|-----------------------------------------------------------------|
E|-----------------------------------------------------------------|
e|-----7-------7-------7-------8-7---------------------------------|
B|---8---8---8---8---8---8---8-----8-------------------------------|
G|-7-------7-------7-------7---------------------------------------|
D|-----------------------------------------------------------------|
A|-----------------------------------------------------------------|
E|-----------------------------------------------------------------|
e|-----7-------7-------7-------8-7---------------------------------|
B|---8---8---8---8---8---8---8-----8-------------------------------|
G|-7-------7-------7-------7---------------------------------------|
D|-----------------------------------------------------------------|
A|-----------------------------------------------------------------|
E|-----------------------------------------------------------------|
e|-----7-------7-------7-------8-7---------------------------------|
B|---8---8---8---8---8---8---8-----8-------------------------------|
G|-7-------7-------7-------7---------------------------------------|
D|-----------------------------------------------------------------|
A|-----------------------------------------------------------------|
E|-----------------------------------------------------------------|
Chorus 2:
   G Dsus Am7  C   G Dsus Am7  C   C   D   C   C   D   C  G/B
e|-3---3---3---3---3---3---3---3---0---0---0---0---0---0-----------|
B|-3---3---1---1---3---3---1---1---1---3---1---1---3---1---0-------|
G|-0---2---0---0---0---2---0---0---0---0---0---0---0---0---0-------|
D|-0---0---2---2---0---0---2---2---2---4---2---2---4---2---0-------|
A|-2-------0---3---2-------0---3---3---5---3---3---5---3---2-------|
E|-3---------------3---------------3---5---3---3---5---3-----------| 
OR
e|-----3---2---0-------3---2---0-------3---2---5-------3---2---0---|
B|---3---3---3---3---3---3---3---3---3---3---3---3---3---3---3---3-|
G|-0---------------0---------------0---------------0---------------|
D|-----------------------------------------------------------------|
A|-----------------------------------------------------------------|
E|-----------------------------------------------------------------|
e|-----3---2---0-------3---2---0-------3---2---5-------3---2---0---|
B|---3---3---3---3---3---3---3---3---3---3---3---3---3---3---3---3-|
G|-0---------------0---------------0---------------0---------------|
D|-----------------------------------------------------------------|
A|-----------------------------------------------------------------|
E|-----------------------------------------------------------------|
   C9  D   C9      C9  D   C9
e|-0---0---0-0-----0---0---0-0-------------------------------------|
B|-3---3---3---3---3---3---3---3-----------------------------------|
G|-0---2---0-----0-0---2---0-----0---------------------------------|
D|-2---0---2-------2---0---2---------------------------------------|
A|-3-------3-------3-------3---------------------------------------|
E|-----------------------------------------------------------------|
Bridge:
  Am7 G/B  C9 Am7 G/B  C9 Am7 G/B  C9
e|-3---3---3---3---3---3---3---3---3-------------------------------|
B|-1---3---3---1---3---3---1---3---3-------------------------------|
G|-0---0---0---0---0---0---0---0---0-------------------------------|
D|-2---0---2---2---0---2---2---0---2-------------------------------|
A|-0---2---3---0---2---3---0---2---3-------------------------------|
E|-----------------------------------------------------------------| 
OR
  Am7 D/B  C  Am7 D/B  C
e|-3---0---3---3---0---3-----7-------7-------7-------8-7-----------|
B|-1---3---1---1---3---1---8---8---8---8---8---8---8-----8---------|
G|-0---0---0---0---0---0-7-------7-------7-------7-----------------|
D|-2---0---2---2---0---2-------------------------------------------|
A|-0---2---3---0---2---3-------------------------------------------|
E|-----------------------------------------------------------------|
Solo:
   G Dsus Am7  C   D   G Dsus Am7  C   D
e|-3---3---3---3---5---3---3---3---3---5---------------------------|
B|-3---3---1---1---3---3---3---1---1---3---------------------------|
G|-0---2---0---0---0---0---2---0---0---0---------------------------|
D|-0---0---2---2---4---0---0---2---2---4---------------------------|
A|-2-------0---3---5---2-------0---3---5---------------------------|
E|-3-------------------3-------------------------------------------| 
OR
e|-2h3-3-3-2-------------------------------------------------------|
B|-----------3~-3/5\3-3/5-5-5-3------------------------------------|
G|------------------------------2~---------------------------------|
D|-----------------------------------------------------------------|
A|-----------------------------------------------------------------|
E|-----------------------------------------------------------------|
e|-----------------7-7-7\5-5-5\3-3-----3---------------------------|
B|-----0h1-1-1-0-------------------0h1---1p0-----------------------|
G|-2h4-----------0-------------------------------------------------|
D|-----------------------------------------------------------------|
A|-----------------------------------------------------------------|
E|-----------------------------------------------------------------| 
e|-2h3-3-3-2-------------------------------------------------------|
B|-----------3~-3/5\3-3/5-5-5-3------------------------------------|
G|------------------------------2~---------------------------------|
D|-----------------------------------------------------------------|
A|-----------------------------------------------------------------|
E|-----------------------------------------------------------------|
e|-----------------7-7-7\5-5-5\3-3-----3---------------------------|
B|-----0h1-1-1-0-------------------0h1---1p0-----------------------|
G|-2h4-----------0-------------------------------------------------|
D|-----------------------------------------------------------------|
A|-----------------------------------------------------------------|
E|-----------------------------------------------------------------|
Chorus 3:
   G  Dsus Am  C9  G Dsus Am7  C   G Dsus Am7  C   G Dsus Am7  C
e|-3---3---3---3---3---3---3---0---3---3---3---3---3---3---3---3---|
B|-3---3---1---1---3---3---1---1---3---3---1---1---3---3---1---1---|
G|-0---2---0---0---0---2---0---0---0---2---0---0---0---2---0---0---|
D|-0---0---2---2---0---0---2---2---0---0---2---2---0---0---2---2---|
A|-2-------0---3---2-------0---3---2-------0---3---2-------0---3---|
E|-3---------------3-----------3---3---------------3---------------| 
OR
e|-----3---2---0-------3---2---0-------3---2---5-------3---2---0---|
B|---3---3---3---3---3---3---3---3---3---3---3---3---3---3---3---3-|
G|-0---------------0---------------0---------------0---------------|
D|-----------------------------------------------------------------|
A|-----------------------------------------------------------------|
E|-----------------------------------------------------------------|
   G Dsus Am7          C
e|-3---3---3-----3-------------3-----------------------------------|
B|-3---3---1-0h1---1-------1-----1---------------------------------|
G|-0---2---0---------0---0---0-----0-------------------------------|
D|-0---0---2-------------------------------------------------------|
A|-2-------0-----------3-------------------------------------------|
E|-3---------------------------------------------------------------|
e|-----3---2---0-------3---2---0-------3---2---5-------3---2---0---|
B|---3---3---3---3---3---3---3---3---3---3---3---3---3---3---3---3-|
G|-0---------------0---------------0---------------0---------------|
D|-----------------------------------------------------------------|
A|-----------------------------------------------------------------|
E|-----------------------------------------------------------------| 
e|-----3---2---0-------3---2---0-------3---2---5-------3---2---0---|
B|---3---3---3---3---3---3---3---3---3---3---3---3---3---3---3---3-|
G|-0---------------0---------------0---------------0---------------|
D|-----------------------------------------------------------------|
A|-----------------------------------------------------------------|
E|-----------------------------------------------------------------|
Outro:
  Am7  C   C   G
e|-3---3---3---3---------------------------------------------------|
B|-1---1---1---3---------------------------------------------------|
G|-0---0---0---0---------------------------------------------------|
D|-2---2---2---0---------------------------------------------------|
A|-0---3---3---2---------------------------------------------------|
E|-------------3---------------------------------------------------| 
OR
                                   C9      G
e|-----3---2---5-------3---2---0---0-0-----3-----------------------|
B|---3---3---3---3---3---3---3---3-1---1---3-----------------------|
G|-0---------------0---------------0-----0-0-----------------------|
D|---------------------------------2-------0-----------------------|
A|---------------------------------3-------2-----------------------|
E|-----------------------------------------3-----------------------|
| /  slide up
| \  slide down
| h  hammer-on
| p  pull-off
| ~  vibrato
| +  harmonic
| x  Mute note

Click HERE To Download PDF

13 comments:

Anonymous said...

Hi,your Page is a great help for me. greetings from Germany! Dominik

Peter said...

Hey thanks a lot for posting these tabs, they are really helpful and I also appreciate how you even show the strumming pattern on your videos.

Mike said...

Awesome song, instructional video, & tab!! Thx for putting this together.

David said...

great voice. unbelievable.
it makes me think of God every time.

Timothy said...

great job!! easy to understand and very helpful indeed. Thanks alot. Greetings from Sabah, Malaysia!

trainedbyhorses said...

Have you by any chance done a video for the playing of Lincoln Brewster's Everlasting God? I love what you have done here with God of Wonders. You have made it so easy to follow you. Thanks so much. I would like to have the simple stuff in Everlasting God (not the guitar solo! LOL!). Just like you did for God of Wonders...been looking on the web. So far, no luck. Just the electric guitar solo. Thanks again.

Thanks!

Graham Choo said...

Hey trainedbyhorses, thanks for the compliments. Everlasting God was actually originally sung by Benton Brown, and can be found on the blog at this link: http://grahamchoo.blogspot.com/2007/08/everlasting-god.html

All the best at learning how to play the song, and worship Him for His glory :)

trainedbyhorses said...

Thanks, I found it just as your email notification came in! Sorry to have taken your time! (I also realized I had mis referenced the author of the song! Whoops! Thanks for making it clear!)

Your blog is the best!

gaboelnuevo said...

I love this song...

Felicidades por tu blog :P

Anonymous said...

As a beginning guitar player, this page is a blessing. I wanted to pickup an instrument to be able to play at home to worship our Lord Jesus.
God of wonders is the first song I learn(ed) to play thanks to your instructional.

Many thanks for this

Term Papers said...

love ur site

Hannah said...

Your page has been a great help to me..but I am stuck on the d/b chord (god of wonders) I can't grasp where I'm supposed to put my fingers....Could you explain what fret and string? thanks.

Graham Choo said...

Hey Hannah, for the D/B chord, here's how you play it:
(x20030)
Index finger on 2nd fret 5th string
Ring finger on 3rd fret 2nd string
Strum from 5th string downwards.