Sunday, May 6, 2007

Here I Am To Worship

Here I Am To Worship (Here I Am To Worship Album Version)Here's a worship song by Tim Hughes that speaks of preparing ourselves to worship a lovely, worthy and wonderful God.

The two videos below are the song itself and an instructional. Tabs are below.




-----------------------------------------------------------------
HERE I AM TO WORSHIP – Tim Hughes
-----------------------------------------------------------------
Tabbed by: Graham Choo
Email: da_tweens@yahoo.co.uk

Tuning: Standard
Intro:
   E   B  F#m  A   E   B   A
e|-0---0---0---0---0---0---0-------------------------------------|
B|-0---0---0---0---0---0---0-------------------------------------|
G|-1---4---2---2---1---4---2-------------------------------------|
D|-2---4---4---2---2---4---2-------------------------------------|
A|-2---2---4---0---2---2---0-------------------------------------|
E|-0---------------0---------------------------------------------| 
Verse 1:
   E   B  F#m  A   E   B   A
e|-0---0---0---0---0---0---0-------------------------------------|
B|-0---0---0---0---0---0---0-------------------------------------|
G|-1---4---2---2---1---4---2-------------------------------------|
D|-2---4---4---2---2---4---2-------------------------------------|
A|-2---2---4---0---2---2---0-------------------------------------|
E|-0---------------0---------------------------------------------|
   E   B  F#m  A   E   B   A
e|-0---0---0---0---0---0---0-------------------------------------|
B|-0---0---0---0---0---0---0-------------------------------------|
G|-1---4---2---2---1---4---2-------------------------------------|
D|-2---4---4---2---2---4---2-------------------------------------|
A|-2---2---4---0---2---2---0-------------------------------------|
E|-0---------------0---------------------------------------------|
Chorus:
   E   B  G#m  A   E   B  G#m  A
e|-0---0---0---0---0---0---0---0---------------------------------|
B|-0---0---0---0---0---0---0---0---------------------------------|
G|-1---4---4---2---1---4---4---2---------------------------------|
D|-2---4---6---2---2---4---6---2---------------------------------|
A|-2---2---6---0---2---2---6---0---------------------------------|
E|-0---------------0---------------------------------------------| 
Verse 2
Chorus
Bridge:
   B  G#m  A   B  G#m  A   B  G#m  A   B  G#m  A  
e|-0---0---0---0---0---0---0---0---0---0---0---0-----------------|
B|-0---0---0---0---0---0---0---0---0---0---0---0-----------------|
G|-4---4---2---4---4---2---4---4---2---4---4---2-----------------|
D|-4---6---2---4---6---2---4---6---2---4---6---2-----------------|
A|-2---6---0---2---6---0---2---6---0---2---6---0-----------------|
E|---------------------------------------------------------------|

Chorus 2x

| /  slide up
| \  slide down
| h  hammer-on
| p  pull-off
| ~  vibrato
| +  harmonic
| x  Mute note

Click HERE To Download PDF

4 comments:

BullShitter said...

Great!! now i can add a new song to our BB praise and worship session.

Anonymous said...

i admire you for your faith in God

Lala Precious said...

What is the strumming pattern? DDDUDDUDUDDD? Thanks for your videos; they are great!

lloyd said...

Thank you so much! i learned a lot of songs. May the Lord richly bless you brother.