Wednesday, June 27, 2007

Be Glorified

Be Glorified (Passion 99 Album Version)A worship song by Chris Tomlin. Glorifies the Lord for being the awesome and mighty God that He is.



-----------------------------------------------------------------
BE GLORIFIED – Chris Tomlin
-----------------------------------------------------------------
Tabbed by: Graham Choo
Email: da_tweens@yahoo.co.uk

Tuning: Standard
Intro:
   G   C9  F   C9  G   C9  F   C9
e|-3---3---3---3---3---3---3---3---------------------------------|
B|-3---3---3---3---3---3---3---3---------------------------------|
G|-0---0---2---0---0---0---2---0---------------------------------|
D|-0---2---3---2---0---2---3---2---------------------------------|
A|-2---3-------3---2---3-------3---------------------------------|
E|-3---------------3---------------------------------------------| 
Verse:
   G   C9  F   C9  G   C9 Dsus G   C9  F   C9  Am Dsus
e|-3---3---3---3---3---3---3---3---3---3---3---0---3-------------|
B|-3---3---3---3---3---3---3---3---3---3---3---1---3-------------|
G|-0---0---2---0---0---0---2---0---0---2---0---2---2-------------|
D|-0---2---3---2---0---2---0---0---2---3---2---2---0-------------|
A|-2---3-------3---2---3-------2---3-------3---0-----------------|
E|-3---------------3-----------3---------------------------------| 
Intro
Verse 
Intro 
Chorus:
   C9  G   C9  G   C9  Em Dsus C9 Am7
e|-3---3---3---3---3---3---3---3---0-----------------------------|
B|-3---3---3---3---3---3---3---3---1-----------------------------|
G|-0---0---0---0---0---0---2---0---0-----------------------------|
D|-2---0---2---0---2---2---0---2---2-----------------------------|
A|-3---2---3---2---3---2-------3---0-----------------------------|
E|-----3-------3-------0-----------------------------------------| 
Interlude:
   G   C9  F   C9  G   C9  G
e|-3---3---3---3---3---3---3-------------------------------------|
B|-3---3---3---3---3---3---3-------------------------------------|
G|-0---0---2---0---0---0---0-------------------------------------|
D|-0---2---3---2---0---2---0-------------------------------------|
A|-2---3-------3---2---3---2-------------------------------------|
E|-3---------------3-------3-------------------------------------| 
Bridge:
   C9 Dsus D/B C9 Dsus D/B C9 Dsus D/B C9
e|-3---3---3---3---3---3---3---3---3---3-------------------------|
B|-3---3---3---3---3---3---3---3---3---3-------------------------|
G|-0---2---2---0---2---2---0---2---2---0-------------------------|
D|-2---0---0---2---0---0---2---0---0---2-------------------------|
A|-3-------2---3-------2---3-------2---3-------------------------|
E|---------------------------------------------------------------| 
Bridge
Chorus
Intro
| /  slide up
| \  slide down
| h  hammer-on
| p  pull-off
| ~  vibrato
| +  harmonic
| x  Mute note

Click HERE To Download PDF

5 comments:

Jim said...

great playing,Greham...
I really like it how u strum ur guitar.

Graham Choo said...

Hey Jim,
Thanks! But I didn't play it actually. It's my twin brother, Daniel. He plays the Christian songs. I play the instrumentals for more variety :)

Jim said...

Hello Daniel,

what`s the strum pattern are you using on this song?

Jim

Graham Choo said...

Hey Jim,
The strumming pattern for the song is:
D UDUD UDUD DU
The chords change within and after each strumming pattern :)

James said...

Is there any way that you can do an instructional video for this one??

thanks!