Saturday, June 16, 2007

Unfailing Love

Unfailing LoveA worship song by Chris Tomlin which declares the unfailing love of Christ that even a God so powerful and mighty could love someone like us.





-----------------------------------------------------------------
UNFAILING LOVE – Chris Tomlin
-----------------------------------------------------------------
Tabbed by: Graham Choo
Email: da_tweens@yahoo.co.uk

Tuning: Standard
Intro:
   G   C9  G   C9
e|-3---3---3---3-------------------------------------------------|
B|-3---3---3---3-------------------------------------------------|
G|-0---0---0---0-------------------------------------------------|
D|-0---2---0---2-------------------------------------------------|
A|-2---3---2---3-------------------------------------------------|
E|-3-------3-----------------------------------------------------| 
Verse 1:
   G   C9 D/B Am7  G   C9 D/B Am7
e|-3---3---3---3---3---3---3---3---------------------------------|
B|-3---3---3---1---3---3---3---1---------------------------------|
G|-0---0---2---0---0---0---2---0---------------------------------|
D|-0---2---0---2---0---2---0---2---------------------------------|
A|-2---3---2---0---2---3---2---0---------------------------------|
E|-3---------------3---------------------------------------------|
Pre-Chorus:
  D/B  C9  G Dsus D/B  C9 Dsus
e|-3---3---3---3---3---3---3-------------------------------------|
B|-3---3---3---3---3---3---3-------------------------------------|
G|-2---0---0---2---2---0---2-------------------------------------|
D|-0---2---0---0---0---2---0-------------------------------------|
A|-2---3---2-------2---3-----------------------------------------|
E|---------3-----------------------------------------------------| 
Chorus:
   G  D/F# Em D/B  C9 Dsus G  D/F# Em D/B  C9 Dsus
e|-3---3---3---3---3---3---3---3---3---3---3---3-----------------|
B|-3---3---3---3---3---3---3---3---3---3---3---3-----------------|
G|-0---2---0---2---0---2---0---2---0---2---0---2-----------------|
D|-0---0---2---0---2---0---0---0---2---0---2---0-----------------|
A|-2---0---2---2---3-------2---0---2---2---3---------------------|
E|-3---2---0---------------3---2---0-----------------------------| 
Verse 2
Pre-Chorus
Chorus
Pre-Chorus
Chorus
| /  slide up
| \  slide down
| h  hammer-on
| p  pull-off
| ~  vibrato
| +  harmonic
| x  Mute note

Click HERE To Download PDF

7 comments:

Anonymous said...

Geez one of my friends let me borrow a cd and I can't get enough of this song..! Went to look it up and saw you dude your pretty good.. and I give my best regards of putting of videos and tabs too.. i play just a little I thought i might try this song out thanks! alot

Anonymous said...

I was wondering if you tuned your guitar to half a step down because I checked my tuning with a tuner but it still sounds much higher than your guitar for some reason. Thanks :)

xuboi@hotmail.com

Graham Choo said...

Hey, the tuning in the video is standard, but a little flat. The difference is negligible though. You can try this tuner at http://www.guitarforbeginners.com/onlinetuner.html

csholloway said...

Love your site! Thank you for all your effort in providing this.

On this song, "Unfailing Love", in the verse, on the chord you've labeled "D/B", might you leave the 2nd (B) string open? It seems that is where the melodoy goes (D-B-C) while the bass is moving C-B-A.

Graham Choo said...

Hey csholloway, I guess you could play that as well. As long as the bass progresses downwards from C-B-A, and the other notes are not conflicting with the notes :)

Anonymous said...

Please can you do a lead guitar instructional for this song as well?

Would really love to learn it also.

Anonymous said...

Please can you do a lead guitar instructional for this song as well?

We would really love it.