Wednesday, June 20, 2007

You Do All Things Well

You Do All Things WellA worship song by Chris Tomlin. Talks about God the creator of this world, whose creation reflects a little part of who He is. All good things come from God, and the work of His hands are indeed good.



-----------------------------------------------------------------
YOU DO ALL THINGS WELL – Chris Tomlin
-----------------------------------------------------------------
Tabbed by: Graham Choo
Email: da_tweens@yahoo.co.uk

Tuning: Standard
Intro:
   D  F#m  E   D  F#m  E
e|-0---0---0---0---0---0-----------------------------------------|
B|-3---0---0---3---0---0-----------------------------------------|
G|-2---2---1---2---2---1-----------------------------------------|
D|-0---4---2---0---4---2-----------------------------------------|
A|-----4---2-------4---2-----------------------------------------|
E|---------0-----------0-----------------------------------------| 
Verse 1:
   D  F#m  E   D  F#m  E   D  F#m  E   D  F#m  E
e|-0---0---0---0---0---0---0---0---0---0---0---0-----------------|
B|-3---0---0---3---0---0---3---0---0---3---0---0-----------------|
G|-2---2---1---2---2---1---2---2---1---2---2---1-----------------|
D|-0---4---2---0---4---2---0---4---2---0---4---2-----------------|
A|-----4---2-------4---2-------4---2-------4---2-----------------|
E|---------0-----------0-----------0-----------0-----------------| 
Chorus 1:
   A   E   Bm  E   A   E   Bm C#m  D  C#m  Bm  E
e|-0---0---2---0---0---0---2---4---0---4---2---0-----------------|
B|-0---0---3---0---0---0---3---5---3---5---3---0-----------------|
G|-2---1---4---1---2---1---4---6---2---6---4---1-----------------|
D|-2---2---4---2---2---2---4---6---0---6---4---2-----------------|
A|-0---2---2---2---0---2---2---4-------4---2---2-----------------|
E|-----0-------0-------0-----------------------0-----------------| 
Intro
Verse 2
Chorus 1
Bridge:
  F#m C#m  Bm  D   E  F#m C#m  Bm  E
e|-0---4---2---2---0---0---4---2---0-----------------------------|
B|-0---5---3---3---0---0---5---3---0-----------------------------|
G|-2---6---4---2---1---2---6---4---1-----------------------------|
D|-4---6---4---0---2---4---6---4---2-----------------------------|
A|-4---4---2-------2---4---4---2---2-----------------------------|
E|-----------------0---------------0-----------------------------| 
Chorus 2:
   A   E   Bm  E   A   E   Bm  E
e|-0---0---2---0---0---0---2---0---------------------------------|
B|-0---0---3---0---0---0---3---0---------------------------------|
G|-2---1---4---1---2---1---4---1---------------------------------|
D|-2---2---4---2---2---2---4---2---------------------------------|
A|-0---2---2---2---0---2---2---2---------------------------------|
E|-----0-------0-------0-------0---------------------------------| 
Chorus 1
| /  slide up
| \  slide down
| h  hammer-on
| p  pull-off
| ~  vibrato
| +  harmonic
| x  Mute note

Click HERE To Download PDF

1 comment:

rod said...

Hey I want you to know I really appreciate what you are doing by posting your instructional videos and songs. I'm a 40yrold struggling guitar player who started late. I've only been playing 2yrs but your site is very incouraging. Keeping singing his praises