Thursday, July 19, 2007

Come Now Is The Time To Worship

Come Now is the Time to WorshipA worship song by Brian Doerksen, who's the original composer. Many other worship leaders have performed this song. A great opening call to worship that keeps the Revelations perspective in mind, where one day every tongue will confess Jesus is God, when He comes back again.



----------------------------------------------------------------------------
COME NOW IS THE TIME TO WORSHIP – Brian Doerksen
----------------------------------------------------------------------------
Tabbed by: Graham Choo
Email: da_tweens@yahoo.co.uk

Tuning: Standard
Intro:
   D   D   D  Dsus D
e|-2---0---2---3---2---------------------------------------------|
B|-3---3---3---3---3---------------------------------------------|
G|-2---2---2---2---2---------------------------------------------|
D|-0---0---0---0---0---------------------------------------------|
A|---------------------------------------------------------------|
E|---------------------------------------------------------------| 
Verse:
   D   D   D  Dsus D  Asus A7  Em D/F# G
e|-2---0---2---3---2---0---0---3---3---3-------------------------|
B|-3---3---3---3---3---3---2---3---3---3-------------------------|
G|-2---2---2---2---2---2---0---0---2---0-------------------------|
D|-0---0---0---0---0---2---2---2---0---0-------------------------|
A|---------------------0---0---2---0---2-------------------------|
E|-----------------------------0---2---3-------------------------| 
   D   D   D  Dsus D  Asus A7  Em D/F# G   D
e|-2---0---2---3---2---0---0---3---3---3---2---------------------|
B|-3---3---3---3---3---3---2---3---3---3---3---------------------|
G|-2---2---2---2---2---2---0---0---2---0---2---------------------|
D|-0---0---0---0---0---2---2---2---0---0---0---------------------|
A|---------------------0---0---2---0---2-------------------------|
E|-----------------------------0---2---3-------------------------| 
Chorus:
   G   D   G   D Dsus D  G   Bm  Em  G  Asus A7
e|-3---2---3---2--3---2--3---2---3---3---0---0-------------------|
B|-3---3---3---3--3---3--3---3---3---3---3---2-------------------|
G|-0---2---0---2--2---2--0---4---0---0---2---0-------------------|
D|-0---0---0---0--0---0--0---4---2---0---2---2-------------------|
A|-2-------2-------------2---2---2---2---0---0-------------------|
E|-3-------3-------------3-------0---3---------------------------| 
   G   D   G   D Dsus D  G   Bm  Em  G  Asus A7
e|-3---2---3---2--3---2--3---2---3---3---0---0-------------------|
B|-3---3---3---3--3---3--3---3---3---3---3---2-------------------|
G|-0---2---0---2--2---2--0---4---0---0---2---0-------------------|
D|-0---0---0---0--0---0--0---4---2---0---2---2-------------------|
A|-2-------2-------------2---2---2---2---0---0-------------------|
E|-3-------3-------------3-------0---3---------------------------| 
Verse
Chorus
Verse
| /  slide up
| \  slide down
| h  hammer-on
| p  pull-off
| ~  vibrato
| +  harmonic
| x  Mute note

Click HERE To Download PDF

3 comments:

nica said...

dude. seriously? this is such a great instructional!!! you're freaking awesome! THANK YOU!

Abi said...

Thank you for posting this up. You made playing it look so easy. gonna practice this right away.

Jun said...

I LOVE THIS :) thank you posting all the tutorials!!