Monday, July 9, 2007

Everyday

EverydayA worship song by Hillsong. Jumpy tune with great lyrics that declare how God has saved us and how we should respond by living everyday for Him.

The first video is the song itself. The second is the instructional. Tabs are below.





-----------------------------------------------------------------
EVERYDAY – Hillsong
-----------------------------------------------------------------
Tabbed by: Graham Choo
Email: da_tweens@yahoo.co.uk

Tuning: Standard
Intro:
   E    B   G#m   F#   E    B   G#m   F#
e|---------------------------------------------------------------|
B|---------------------------------------------------------------|
G|-1x---4x---4x---3x---1x---4x---4x---3x-------------------------|
D|-2x---4x---6x---4x---2x---4x---6x---4x-------------------------|
A|-2x---2x---6x---4x---2x---2x---6x---4x-------------------------|
E|-0x--------4x---2x---0x--------4x---2x-------------------------| 
Verse 1:
   E    B   G#m   F#   E    B   G#m   F#
e|---------------------------------------------------------------|
B|---------------------------------------------------------------|
G|-1x---4x---4x---3x---1x---4x---4x---3x-------------------------|
D|-2x---4x---6x---4x---2x---4x---6x---4x-------------------------|
A|-2x---2x---6x---4x---2x---2x---6x---4x-------------------------|
E|-0x--------4x---2x---0x--------4x---2x-------------------------| 
   E    B   G#m   F#   E    B   G#m   F#
e|---------------------------------------------------------------|
B|---------------------------------------------------------------|
G|-1x---4x---4x---3x---1x---4x---4x---3x-------------------------|
D|-2x---4x---6x---4x---2x---4x---6x---4x-------------------------|
A|-2x---2x---6x---4x---2x---2x---6x---4x-------------------------|
E|-0x--------4x---2x---0x--------4x---2x-------------------------| 
Intro
Verse 2
Chorus:
   B   E  G#m  F#  B   E  G#m  F#  B   E  G#m  F#  B   E  G#m  F#
e|-0---0---4---2---0---0---4---2---0---0---4---2---0---0---4---2-|
B|-0---0---4---2---0---0---4---2---0---0---4---2---0---0---4---2-|
G|-4---1---4---3---4---1---4---3---4---1---4---3---4---1---4---3-|
D|-4---2---6---4---4---2---6---4---4---2---6---4---4---2---6---4-|
A|-2---2---6---4---2---2---6---4---2---2---6---4---2---2---6---4-|
E|-----0---4---2-------0---4---2-------0---4---2-------0---4---2-| 
Intro
Verse 2
Chorus 2x
Bridge:
   B    E   G#m   F#   B    E   G#m   F#  
e|---------------------------------------------------------------|
B|---------------------------------------------------------------|
G|-4x---1x---4x---3x---4x---1x---4x---3x-------------------------|
D|-4x---2x---6x---4x---4x---2x---6x---4x-------------------------|
A|-2x---2x---6x---4x---2x---2x---6x---4x-------------------------|
E|------0x---4x---2x--------0x---4x---2x-------------------------| 
   B    E   G#m   F#   B    E   G#m   F#  
e|---------------------------------------------------------------|
B|---------------------------------------------------------------|
G|-4x---1x---4x---3x---4x---1x---4x---3x-------------------------|
D|-4x---2x---6x---4x---4x---2x---6x---4x-------------------------|
A|-2x---2x---6x---4x---2x---2x---6x---4x-------------------------|
E|------0x---4x---2x--------0x---4x---2x-------------------------| 
   B   E  G#m  F#  B   E  G#m  F#  B   E  G#m  F#  B   E  G#m  F#
e|-0---0---4---2---0---0---4---2---0---0---4---2---0---0---4---2-|
B|-0---0---4---2---0---0---4---2---0---0---4---2---0---0---4---2-|
G|-4---1---4---3---4---1---4---3---4---1---4---3---4---1---4---3-|
D|-4---2---6---4---4---2---6---4---4---2---6---4---4---2---6---4-|
A|-2---2---6---4---2---2---6---4---2---2---6---4---2---2---6---4-|
E|-----0---4---2-------0---4---2-------0---4---2-------0---4---2-| 
Chorus 2x
| /  slide up
| \  slide down
| h  hammer-on
| p  pull-off
| ~  vibrato
| +  harmonic
| x  Mute note

Click HERE To Download PDF

6 comments:

Joseph Parker said...

Hey, I was just going to make a suggestion for anyone that wants to play this song. I capo the forth fret and transpose everything back into original key. It makes for easier chording and less power chording. I use a the following shapes for the different chords:
for E= a C chord shape,
for B= a G chord shape,
for G#m= a Em chord shape,
and finnally F#= a D chord shape.
It doesnt change anything from strumming, but it makes it a whole lot easier to play.
Keep up God's Work and God bless.

Anonymous said...

jaja dat was such a cute smile at 1:07..it made me smile :D God bless!

Jong said...

Thanks for sharing this wonderful song! God Bless.

Anonymous said...

Daniel - Nice Work!!! Thanks for the breakdown!

jamesmoon said...

graham, you got a type in the second line of verse 1: "you who gave me life". life is F#?

Graham Choo said...

Thanks for telling me about it James! Will correct the typo :)