Wednesday, July 11, 2007

One Voice

A beautiful worship song by Hosanna Integrity. Really powerful lyrics that speaks of the unity as brothers and sisters in Christ that we so earnestly seek and pray for - that the world may know that Jesus Christ is Lord. Let us be one voice.



-----------------------------------------------------------------
ONE VOICE – Hosanna Integrity
-----------------------------------------------------------------
Tabbed by: Graham Choo
Email: da_tweens@yahoo.co.uk

Tuning: Standard

Verse 1:
   D Asus F#m  Bm  Em Asus A7  Em Asus F#m Bm  G   D   Em Asus A
e|-0---0---2---2---3---0---0---3---0---2---2---3---0---3---0---0-|
B|-3---3---2---3---3---3---2---3---3---2---3---3---3---3---3---2-|
G|-2---2---2---4---0---2---0---0---2---2---4---0---2---0---2---0-|
D|-0---2---4---4---2---2---2---2---2---4---4---0---0---2---2---2-|
A|-----0---4---2---2---0---0---2---0---4---2---2-------2---0---0-|
E|---------2-------0-----------0-------2-------3-------0---------| 
Chorus:
   D  F#m  G  Asus D  F#m  G  Asus F#m F#  Bm  G   Em Asus D
e|-0---2---3---0---0---2---3---0---2---2---2---3---3---0---0-----|
B|-3---2---3---3---3---2---3---3---2---2---3---3---3---3---3-----|
G|-2---2---0---2---2---2---0---2---2---3---4---0---0---2---2-----|
D|-0---4---0---2---0---4---0---2---4---4---4---0---2---2---0-----|
A|-----4---2---0-------4---2---0---4---4---2---2---2---0---------|
E|-----2---3-----------2---3-------2---2-------3---0-------------| 
Verse 2
Chorus 2x
   Bm  Em Asus D
e|-2---3---0---0-------------------------------------------------|
B|-3---3---3---3-------------------------------------------------|
G|-4---0---2---2-------------------------------------------------|
D|-4---2---2---0-------------------------------------------------|
A|-2---2---0-----------------------------------------------------|
E|-----0---------------------------------------------------------|
| /  slide up
| \  slide down
| h  hammer-on
| p  pull-off
| ~  vibrato
| +  harmonic
| x  Mute note

Click HERE To Download PDF

3 comments:

sham said...

keep up the good work guys..

may God richely bless you

Shamir
Netherlands

Anonymous said...

thank you for sharing such a lovely song. God should be very happy to hear your wonderful praise.

:)

Anonymous said...

God Bless You! Keep praising the Lord for He is worthy!

Michael
Canada