Tuesday, July 3, 2007

One Way

One WayAnother youth-oriented worship song by Hillsongs. Echoes the famous words of Jesus in the John 14:6 where he says, "I am the way and the truth and the life. No one comes to the Father except through me." Indeed He is the only way to salvation and the only one we could live for.



-----------------------------------------------------------------
ONE WAY – Instructional
-----------------------------------------------------------------
Tabbed by: Graham Choo
Email: da_tweens@yahoo.co.uk

Tuning: Standard
Intro:
   B   G#m   F#   E
e|---------------------------------------------------------------|
B|---------------------------------------------------------------|
G|-4x---4x---3x---1x---------------------------------------------|
D|-4x---6x---4x---2x---------------------------------------------|
A|-2x---6x---4x---2x---------------------------------------------|
E|------4x---2x---0x---------------------------------------------|
Verse 1:
   B   G#m   F#   E    B   G#m   F#   E    E
e|-----------------------------------------0---------------------|
B|-----------------------------------------0---------------------|
G|-4x---4x---3x---1x---4x---4x---3x---1x---1---------------------|
D|-4x---6x---4x---2x---4x---6x---4x---2x---2---------------------|
A|-2x---6x---4x---2x---2x---6x---4x---2x---2---------------------|
E|------4x---2x---0x--------4x---2x---0x---0---------------------| 
Chorus:
   B   F# G#m  E   B   F# G#m  A
e|---------------------------------------------------------------|
B|---------------------------------------------------------------|
G|-4---3---4---1---4---3---4---6---------------------------------|
D|-4---4---6---2---4---4---6---7---------------------------------|
A|-2---4---6---2---2---4---6---7---------------------------------|
E|-----2---4---0-------2---4---5---------------------------------| 
Interlude:
  G#m  E  G#m  E
e|---------------------------------------------------------------|
B|---------------------------------------------------------------|
G|-4---1---4---1-------------------------------------------------|
D|-6---2---6---2-------------------------------------------------|
A|-6---2---6---2-------------------------------------------------|
E|-4---0---4---0-------------------------------------------------| 
Verse 2
Chorus
Bridge:
   B    F#  G#m   E   G#m   F#   E
e|---------------------------------------------------------------|
B|---------------------------------------------------------------|
G|-4x---3x---4x---1x---4x---3x---1x------------------------------|
D|-4x---4x---6x---2x---6x---4x---2x------------------------------|
A|-2x---4x---6x---2x---6x---4x---2x------------------------------|
E|------2x---4x---0x---4x---2x---0x------------------------------| 
   B    F#  G#m   E   G#m   F#   E
e|---------------------------------------------------------------|
B|---------------------------------------------------------------|
G|-4x---3x---4x---1x---4x---3x---1x------------------------------|
D|-4x---4x---6x---2x---6x---4x---2x------------------------------|
A|-2x---4x---6x---2x---6x---4x---2x------------------------------|
E|------2x---4x---0x---4x---2x---0x------------------------------|    
   B   F# G#m  E  G#m  F#  E   B   F# G#m  E  G#m  F#  E
e|---------------------------------------------------------------|
B|---------------------------------------------------------------|
G|-4---3---4---1---4---3---1---4---3---4---1---4---3---1---------|
D|-4---4---6---2---6---4---2---4---4---6---2---6---4---2---------|
A|-2---4---6---2---6---4---2---2---4---6---2---6---4---2---------|
E|-----2---4---0---4---2---0-------2---4---0---4---2---0---------|
Chorus 2x
| /  slide up
| \  slide down
| h  hammer-on
| p  pull-off
| ~  vibrato
| +  harmonic
| x  Mute note

Click HERE To Download PDF

5 comments:

Danny said...

Thanks and really appreciate your love to God and His Kingdom. Your instructional videos are just excellent for anyone who would want to learn guitar to worship Jesus. I am picking up the skill from you to impart to other fellow brethens, esp. those may be going out to mission field. Keep up the good works for it is not in vain and surely it will not return void. Praise God for you.

JORGE said...

Hi, im Jorge From Colombia South America, i really apreciate the work that u guys r doing, i do see how man time u have invert in it.. its a kinda of work in Jesus kingdom... i support u guys to keep on with it.. I do adore Jesus for Asian ppl how serve to Him... one day hope meet u guys personality.. Keep Blessed guys..

Thanks for all.

Jorge

sarah said...

hey i'm sarah.
firstly i'd like to say you are amazing. definitely my idol haha..you play the guitar really good. keep it up.
i was wondering if you could play "for who you are" by hillsong from the album mighty to save? i have no idea how to strum the chords...i'm a beginner... well ..god bless and thanks!! you've helped me a lot with the videos! God bless

fok said...

Hi Danei,

I found some difficulties about the strumming patten, can you explain more about the strumming patten of "One Way"?

Graham Choo said...

Hey fok, you can try referring to the pdf which writes out the strumming patterns. It might be easier to follow than the video for some :)