Sunday, July 22, 2007

Sundance

A beautiful song by Kotaro Oshio. I'm dedicating this song to my niece, who was just born yesterday! Kayli Mae Choo Rui Min rocks! This song has a happy tune to it, and I guess it expresses the feelings that all my brothers felt at the arrival of their niece :P



-----------------------------------------------------------------
SUNDANCE – Kotaro Oshio
-----------------------------------------------------------------
Tabbed by: Graham Choo
Email: da_tweens@yahoo.co.uk

Tuning: A E E F# B e

Intro:
e |-7+--0---0--0--0--0--0--0--0--0---0--0--0--0---0--0--0-----------|
B |-7+--9---7--0--0--9--7--0--0--9---7--0--0--9---7--0--0-----------|
F#|-7+--10--9--0--0--10-9--0--0--10--9--0--0--10--9--0--0-----------|
E |-7+--0---0--0--0--0--0--0--0--0---0--0--0--0---0--0--0-----------|
E |-7+--0---0--0--0--0--0--0--0--0---0--0--0--0---0--0--0-----------|
A |-7+------------7-----------7------------7------------7-----------|
Verse:
e |-2h4-4-0h5-4-2p0---7p0---5p0---4p0---4p0---0---------------------|
B |-0---0-0---0-0-----9p0---7p0---5p0---5p0---0---------------------|
F#|-0---0-5---5-0-----0---0-0---0-0---0-0---0-0---------------------|
E |-0---0-0---0-0---0-----0-----0-----0-----0-----------------------|
E |-0-----0-----0---0-----------------------------------------------|
A |-----------------------------------------------------------------|
e |--------0-7p0-------------0--12-11-0--------0----5-4---------0---|
B |-0—-12+-0-----7p0-----0-0-0--0--0—-0--12-10-9--0-0-0-------0-0---|
F#|-12-----0---------7p0-7-0-10----10-10-10-10-10-3-3-3-3p0-3---3---|
E |-11-----4-----------------9-----9--9--9--9--0--0-0-0-0-------0---|
E |-0------4-----------------0--------0--------0--0-----0-----------|
A |-11-----4-----------------9--------9--------9--2-----2-----------|
e |-2h4-4-0h5-4-2p0---7p0---5p0---4p0---4p0---0---------------------|
B |-0---0-0---0-0-----9p0---7p0---5p0---5p0---0---------------------|
F#|-0---0-5---5-0-----0---0-0---0-0---0-0---0-0---------------------|
E |-0---0-0---0-0---0-----0-----0-----0-----0-----------------------|
E |-0-----0-----0---0-----------------------------------------------|
A |-----------------------------------------------------------------|
e |--------0-7p0---------------------0---------0-0------------------|
B |-0—-12+-0-----7p0-----0-0-------0-0-------0-0-0------------------|
F#|-12-----0---------7p0-7-0-3p0-3---3-3p0-3---3/7------------------|
E |-11-----4-----------------0-------0-0-------0-0------------------|
E |-0------4-----------------2---------0----------------------------|
A |-11-----4---------------------------2----------------------------|
e |-0---0--0--0--0--0--0--0-----------------------------------------|
B |-9---7--0--0--9--7--0--0-----------------------------------------|
F#|-10--9--0--0--10-9--0--0-----------------------------------------|
E |-0---0--0--0--0--0--0--0-----------------------------------------|
E |-0---0--0--0--0--0--0--0-----------------------------------------|
A |-----------7-----------7-----------------------------------------|
Chorus:
e |-7-7-7-7-5-4/7-7---7-7-7-5-4/5-5---5-5-5-5/7-4-4-4-4---4---0-----|
B |-0-0-0-0-0-0---0---0-0-0-0-0---0---0-----------0-0-0---0---0-----|
F#|-0-0-----------0---0---------------6-----6/8---0-----0---0-------|
E |---0---------------0---------------0-----------0-----------------|
E |-----------------------------------------------------------------|
A |-5---5-5-------4-4---4-4-------3-3---3-3-----2---2-2-------------|
e |-----0-5-2-0-----0-4-0-------0-4-0---7-7-5-5---------------------|
B |-2---2-2-2-2-----0-0-0-2p0-2---2-2/5-5-5-0-0---------------------|
F#|-2-------2-2-2/6-6-6-6-3-------3-3/6-6-6-0-0---------------------|
E |-0-0-----0---0-----0-0-0---------0---------0---------------------|
E |-------------2/5---5-5-------------------------------------------|
A |-1-----1---------------2-------2--/5-5---5-----------------------|
Bridge:
e |---7p0---7p0---9-p0---11p0---12+---7p0---7p0---9-p0---11p0---12+-|
B |---9p0---9p0---10p0---12p0---12+---9p0---9p0---10p0---12p0---12+-|
F#|---0-----0-----0------0------12+---0-----0-----0------0------12+-|
E |-0-----0-----0------0------0-12+-0-----0-----0------0------0-12+-|
E |-0-------------------------------0-------------------------------|
A |-----------------------------------------------------------------|
e |---------7+-----------0-------------------------0-0---5-4-0------|
B |---------7+-------------4p0-2/4-5-10-9--7-5-4-2-2-0---0-0-0------|
F#|---------7+-----------------3/5-7-12-10-9-7-5-3---0---0-0-0------|
E |-4-4-2-4-7+-2-4-4-2-4-------0-0-0-0--0--0-0-0-0---0--------------|
E |-4-4-2-4-7+-2-4-4-2-4-------0-0-0-0--0--0-0-0-0------------------|
A |-4-4-2-4----2-4-4-2-4-------------------------2-----2------------|
e |---7p0---7p0---9-p0---11p0---12+---7p0---7p0---9-p0---11p0---12+-|
B |---9p0---9p0---10p0---12p0---12+---9p0---9p0---10p0---12p0---12+-|
F#|---0-----0-----0------0------12+---0-----0-----0------0------12+-|
E |-0-----0-----0------0------0-12+-0-----0-----0------0------0-12+-|
E |-0-------------------------------0-------------------------------|
A |-----------------------------------------------------------------|
e |---------7+-----------0-------------------------0-0--------------|
B |---------7+-------------4p0-2/4-5-10-9--7-5-4-2-2-0--------------|
F#|---------7+-----------------3/5-7-12-10-9-7-5-3---0--------------|
E |-4-4-2-4-7+-2-4-4-2-4-------0-0-0-0--0--0-0-0-0---0--------------|
E |-4-4-2-4-7+-2-4-4-2-4-------0-0-0-0--0--0-0-0-0------------------|
A |-4-4-2-4----2-4-4-2-4-------------------------2------------------|
e |-0---0---0---0---0-----------------------------------------------|
B |-0---0---0---0---0-----------------------------------------------|
F#|-3p0-3p0-3p0-3p0-3-----------------------------------------------|
E |-0---0---0---0---0-----------------------------------------------|
E |-0---0---0---0---0-----------------------------------------------|
A |-2---2---2---2---2-----------------------------------------------|
Interlude:
e |-2h4-4-0h5-4-2p0---7p0---5p0---4p0---4p0---0---------------------|
B |-0---0-0---0-0-----9p0---7p0---5p0---5p0---0---------------------|
F#|-0---0-5---5-0-----0---0-0---0-0---0-0---0-0---------------------|
E |-0---0-0---0-0---0-----0-----0-----0-----0-----------------------|
E |-0-----0-----0---0-----------------------------------------------|
A |-----------------------------------------------------------------|
e |--------0-7p0---------------------0---------0-0------------------|
B |-0—-12+-0-----7p0-----0-0-------0-0-------0-0-0------------------|
F#|-12-----0---------7p0-7-0-3p0-3---3-3p0-3---3/7------------------|
E |-11-----4-----------------0-------0-0-------0-0------------------|
E |-0------4-----------------2---------0----------------------------|
A |-11-----4---------------------------2----------------------------|
Outro:
e |-0---0--0--0--0--0--0--0--0---0--0--0--0---0--0--0--7+-----------|
B |-9---7--0--0--9--7--0--0--9---7--0--0--9---7--0--0--7+-----------|
F#|-10--9--0--0--10-9--0--0--10--9--0--0--10--9--0--0--7+-----------|
E |-0---0--0--0--0--0--0--0--0---0--0--0--0---0--0--0--7+-----------|
E |-0---0--0--0--0--0--0--0--0---0--0--0--0---0--0--0--7+-----------|
A |-----------7-----------7------------7------------7--7+-----------|
| /  slide up
| \ slide down
| h hammer-on
| p pull-off
| ~ vibrato
| + harmonic
| x Mute note

9 comments:

Eve said...

First, congrats on the birth of your niece.. soon to be 2 months!
Second, i was introduced to "Red Shoes Dance" yesterday and have been listening to ppl playing it on YouTube all day today. Do you know where i can get the tabs for it? Thanks!

Graham Choo said...

Hey Eve, Thanks. It's a really nice song, but I don't know where to find the tabs too. I actually write them out myself. I really like this song, so i've decided to learn it. But it'll take me quite a while since i currently have a really really long list

Eve said...

Thanks, Graham. I guess I'll wait till you get to it :) and meanwhile i'll listen to the youtube players over and over so i'll be ready for the tabs. Happy tabbing! And i forgot to say... great playing there. you make it look so easy.

Jom said...

I requested you for this song months ago! thank you very much for taking time! and congratulations for your family, having a new person added! thank you thank you thank you! this is my favorite kotaro song. btw, do you know the english title of this song? http://www.youtube.com/watch?v=zrc3pfH-nP4

Graham Choo said...

Hey Jom, I used Babelfish at http://babelfish.altavista.com/ to translate the Japanese words. Apparently, it means "The Cloud Where That Summer Is White". It's a beautiful song, I'd attempt to learn it if only I could see the fretboard :(

Jom said...

hey Graham!!! I'm so happy! remember the song that you translated the title for me? Luckily, I found a guy in you tube who played the same song showing his fret board xD here's the link! http://www.youtube.com/watch?v=_9N9U59M3SY

K's Blog said...

congrats mann. My cousin was born relatively soon also. That was fun for the family, especially my grandma who only has 2 grandkids hahaha. Congrats :]

Kyle Weber said...

Hey, for some reason I can't get the tuning to sound right for this one. If possible, could you tell me what to do to get to it from EADGBE? I don't know what I'm doing wrong.

Graham Choo said...

Hey Kyle,

To get the tuning A E E F# B e from the standard E A D G B e, here's what needs to be done:

E - Tune downwards 4 notes to A
A - Tune downwards 3 notes to E
D - Tune upwards 1 note to E
G - Tune downwards 1/2 note to F#
B - No change
e - No change