Saturday, November 17, 2007

Everything Glorious

Everything Glorious (Everything Glorious Album Version)A worship song by David Crowder Band. In Philippians 3:20-21, Paul encourages the Philippians to press on toward the goal of living holy lives for Christ, preaching the Gospel to the world. He tells them, "But our citizenship is in heaven. And we eagerly await a Savior from there, the Lord Jesus Christ, who, by the power that enables him to bring everything under his control, will transform our lowly bodies so that they will be like his glorious body."

As we live on this earth having accepted Christ as our Saviour, the Holy Spirit who indwells in us is slowly transforming us to be perfected in Christ. While we have been made perfect forever (full reconciliation with God which does not require any other sacrifice as stipulated by the Old Covenant) by Christ's sacrifice for us on the cross, we are still being made holy on this earth (Hebrews 10:14). You make everything glorious. What does that make me? Glorious - when Christ returns to rule and judge the earth, and to commune with us forever. Thank you Jesus.





-----------------------------------------------------------------
EVERYTHING GLORIOUS – David Crowder Band
-----------------------------------------------------------------
Tabbed by: Graham Choo
Email: da_tweens@yahoo.co.uk

Tuning: Standard (Capo 1st Fret)
Intro:
   C         G         F
e|---------------------------------------------------------------|
B|-------------------------1---1-1---1---------------------------|
G|-----0---0-----0---0-2-2-0h2-0-2p0-2p0-------------------------|
D|-2-2-0h2-0-----0h2-0-3-3-------3---3---------------------------|
A|-3-3-------2-2-------------------------------------------------|
E|-----------3-3-------------------------------------------------| 
   C         G         F
e|---------------------------------------------------------------|
B|-------------------------1---1-1---1---------------------------|
G|-----0---0-----0---0-2-2-0h2-0-2p0-2p0-------------------------|
D|-2-2-0h2-0-----0h2-0-3-3-------3---3---------------------------|
A|-3-3-------2-2-------------------------------------------------|
E|-----------3-3-------------------------------------------------| 
Verse 1:
   C         G         F
e|---------------------------------------------------------------|
B|-------------------------1---1-1---1---------------------------|
G|-----0---0-----0---0-2-2-0h2-0-2p0-2p0-------------------------|
D|-2-2-0h2-0-----0h2-0-3-3-------3---3---------------------------|
A|-3-3-------2-2-------------------------------------------------|
E|-----------3-3-------------------------------------------------| 
   C         G         F
e|---------------------------------------------------------------|
B|-------------------------1---1-1---1---------------------------|
G|-----0---0-----0---0-2-2-0h2-0-2p0-2p0-------------------------|
D|-2-2-0h2-0-----0h2-0-3-3-------3---3---------------------------|
A|-3-3-------2-2-------------------------------------------------|
E|-----------3-3-------------------------------------------------| 
   C         G         F
e|---------------------------------------------------------------|
B|-------------------------1---1-1---1---------------------------|
G|-----0---0-----0---0-2-2-0h2-0-2p0-2p0-------------------------|
D|-2-2-0h2-0-----0h2-0-3-3-------3---3---------------------------|
A|-3-3-------2-2-------------------------------------------------|
E|-----------3-3-------------------------------------------------| 
   C         G         F
e|---------------------------------------------------------------|
B|-------------------------1---1-1---1---------------------------|
G|-----0---0-----0---0-2-2-0h2-0-2p0-2p0-------------------------|
D|-2-2-0h2-0-----0h2-0-3-3-------3---3---------------------------|
A|-3-3-------2-2-------------------------------------------------|
E|-----------3-3-------------------------------------------------| 
Chorus 1:
   C   G   F   C   G   F   C   G   F   C   G   F
e|-0---3---0---0---3---0---0---3---0---0---3---0-----------------|
B|-1---0---1---1---0---1---1---0---1---1---0---1-----------------|
G|-0---0---2---0---0---2---0---0---2---0---0---2-----------------|
D|-2---0---3---2---0---3---2---0---3---2---0---3-----------------|
A|-3---2-------3---2-------3---2-------3---2---------------------|
E|-----3-----------3-----------3-----------3---------------------| 
Intro
Verse 2:
   C   G   F   C   G   F   C   G   F   C   G   F
e|-0---3---0---0---3---0---0---3---0---0---3---0-----------------|
B|-1---0---1---1---0---1---1---0---1---1---0---1-----------------|
G|-0---0---2---0---0---2---0---0---2---0---0---2-----------------|
D|-2---0---3---2---0---3---2---0---3---2---0---3-----------------|
A|-3---2-------3---2-------3---2-------3---2---------------------|
E|-----3-----------3-----------3-----------3---------------------| 
Chorus 1
Bridge:
   Am Am/B C   G   F Am/B  C   G   F
e|-0---0---0---3---0---0---0---3---0-----------------------------|
B|-1---1---1---0---1---1---1---0---1-----------------------------|
G|-2---0---0---0---2---0---0---0---2-----------------------------|
D|-2---0---2---0---3---0---2---0---3-----------------------------|
A|-0---2---3---2-------2---3---2---------------------------------|
E|-------------3---------------3---------------------------------| 
Chorus 2:
   C         G         F
e|---------------------------------------------------------------|
B|-------------------------1---1-1---1---------------------------|
G|-----0---0-----0---0-2-2-0h2-0-2p0-2p0-------------------------|
D|-2-2-0h2-0-----0h2-0-3-3-------3---3---------------------------|
A|-3-3-------2-2-------------------------------------------------|
E|-----------3-3-------------------------------------------------| 
   C         G         F
e|---------------------------------------------------------------|
B|-------------------------1---1-1---1---------------------------|
G|-----0---0-----0---0-2-2-0h2-0-2p0-2p0-------------------------|
D|-2-2-0h2-0-----0h2-0-3-3-------3---3---------------------------|
A|-3-3-------2-2-------------------------------------------------|
E|-----------3-3-------------------------------------------------| 
   C         G         F                 C   G   F
e|---------------------------------------0---3---0---------------|
B|-------------------------1---1-1---1---1---0---1---------------|
G|-----0---0-----0---0-2-2-0h2-0-2p0-2p0-0---0---2---------------|
D|-2-2-0h2-0-----0h2-0-3-3-------3---3---2---0---3---------------|
A|-3-3-------2-2-------------------------3---2-------------------|
E|-----------3-3-----------------------------3-------------------| 
Chorus 1
Intro
| /  slide up
| \  slide down
| h  hammer-on
| p  pull-off
| ~  vibrato
| +  harmonic
| x  Mute note

Click HERE To Download PDF

6 comments:

guitarist said...

i think your key is off. it should be capo 3 if i'm not mistaken. take a look at the newsongcafe video on youtube!

-godbless

guitarist said...

gah i meant capo 2

http://youtube.com/watch?v=UKgM_fv_4EI

Graham Choo said...

Yeah it is capo 2 in the NewSong cafe video... that's in the key of D. But my brother can't reach D when he's singing, so he capoed the 1st fret instead to play in the key of C#. The tabs are still the same though. Just capo the 2nd fret and play according to the tabs. It'll sound the same as the vid :)

yoshi.alvarez said...

Yeah.. but he also said "Umm.. it appears to be where it is currently, Im not sure if thats where it actually is, but it was there and I didnt think to move it. So for now, its on the second fret"

lol Which I found hilarious. Its really something he would do too haha

But like he basically said himself; just move the capo to whatever key you can utilize your voice in!
I like it at the first fret actually.

Rose said...

Fabulous. This tab is awesome. I love it capoed on the first fret; just hope I can sing low enough and stay on key. God bless!@

Anonymous said...

Great! Thanks a lot.