Thursday, November 22, 2007

Undo

UndoA worship song by Rush Of Fools. Reminds me about the parable of the lost son, spoken by Jesus in Luke 15:11-32. The story goes that the youngest son one day, demands his inheritance and decides to leave the household. He squanders his wealth on wild living, and eventually had to end up feeding pigs to provide for his meals. When he finally came to his senses, he decided to return home to his father, in the hope that he can be a servant in his father's household. However, on returning, his father is full of joy, and embraces him. He clothes and adorns his son, and calls for a big feast in celebration of his son's return.

In many ways, we are like the wayward son, who wants to be independent of his father. We tell God that we don't need Him anymore, and go on to lead lives that are unpleasing to Him. However, we have the assurance that there is an aspect of God the Father as shown in this parable, who is expectantly waiting for us to return to Him. And He will embrace and celebrate our return, because He really loves us. Let's call on God to help us return to Him when we have sinned, to forgive us for our wrongdoings. You're the only one, who can undo what I've become.





-----------------------------------------------------------------
UNDO – Rush Of Fools
-----------------------------------------------------------------
Tabbed by: Graham Choo
Email: da_tweens@yahoo.co.uk

Tuning: Standard (Capo 1st Fret)
Verse 1:
   C  C/B  Am C/B  C  C/B  Am  G
e|-0---0---0---0---0---0---0---3---------------------------------|
B|-1---1---1---1---1---1---1---3---------------------------------|
G|-0---0---2---0---0---0---2---0---------------------------------|
D|-2---0---2---0---2---0---2---0---------------------------------|
A|-3---2---0---2---3---2---0---2---------------------------------|
E|-----------------------------3---------------------------------| 
Pre-Chorus:
   F   G   C   F   G
e|-0---3---0---0---3---------------------------------------------|
B|-1---3---1---1---3---------------------------------------------|
G|-2---0---0---2---0---------------------------------------------|
D|-3---0---2---3---0---------------------------------------------|
A|-----2---3-------2---------------------------------------------|
E|-----3-----------3---------------------------------------------| 
Chorus:
   C   Am  F   G   C   Am  F   G   C   Am  F   G   C   Am  F   G
e|-0---0---0---3---0---0---0---3---0---0---0---3---0---0---0---3-|
B|-1---1---1---3---1---1---1---3---1---1---1---3---1---1---1---3-|
G|-0---2---2---0---0---2---2---0---0---2---2---0---0---2---2---0-|
D|-2---2---3---0---2---2---3---0---2---2---3---0---2---2---3---0-|
A|-3---0-------2---3---0-------2---3---0-------2---3---0-------2-|
E|-------------3---------------3---------------3---------------3-| 
Interlude:
   C   Am  F   G
e|-0---0---0---3-------------------------------------------------|
B|-1---1---1---3-------------------------------------------------|
G|-0---2---2---0-------------------------------------------------|
D|-2---2---3---0-------------------------------------------------|
A|-3---0-------2-------------------------------------------------|
E|-------------3-------------------------------------------------| 
Verse 2
Pre-Chorus
Chorus
Bridge:
   Em  F   Em  F   G
e|-0---0---0---0---3---------------------------------------------|
B|-0---1---0---1---3---------------------------------------------|
G|-0---2---0---2---0---------------------------------------------|
D|-2---3---2---3---0---------------------------------------------|
A|-2-------2-------2---------------------------------------------|
E|-0-------0-------3---------------------------------------------| 
Chorus
   C   Am  F   G   C   Am  F   G
e|-0---0---0---3---0---0---0---3---------------------------------|
B|-1---1---1---3---1---1---1---3---------------------------------|
G|-0---2---2---0---0---2---2---0---------------------------------|
D|-2---2---3---0---2---2---3---0---------------------------------|
A|-3---0-------2---3---0-------2---------------------------------|
E|-------------3---------------3---------------------------------| 
Outro:
   C   Am  F   G   C   Am  F   G   C
e|-0---0---0---3---0---0---0---3---0-----------------------------|
B|-1---1---1---3---1---1---1---3---1-----------------------------|
G|-0---2---2---0---0---2---2---0---0-----------------------------|
D|-2---2---3---0---2---2---3---0---2-----------------------------|
A|-3---0-------2---3---0-------2---3-----------------------------|
E|-------------3---------------3---------------------------------| 
| /  slide up
| \  slide down
| h  hammer-on
| p  pull-off
| ~  vibrato
| +  harmonic
| x  Mute note

Click HERE To Download PDF

4 comments:

Alastair said...

Unbelievable! Was just looking up the chords of this one today. You truly do put some effort into doing all these videos. You're a machine! ;-)

snowjunkie.wordpress.com

JOEL BENTANCUR said...

JOEL SAID: WOW, PLEASE PLEASE DONT EVER STOP YOUR INSTRUCTIONAL VIDEOS. YOU HAVE NO IDEA HOW MUCH YOU HAVE BEEN A BLESSING IN MY LIFE. I LEAD P & W AT A MENS GROUP THAT MEETS EVERY WED NIGHT. THESE INST VIDS ARE A HUGE BLESSING IN HELPING ME LEARN SONGS THAT I HAVE ALWAYS WANTED TO LEARN BUT COULDNT FIND OR JUST SONGS THAT I ALREADY KNEW BUT IN A DIFFERENT KEY. THANKS DANIEL. I PRAY THAT GOD CONTINUES TO USE YOU MIGHTLY TO MINISTER HIS WORD TO THE WORLD THROUGH YOUR GIFT. AMEN? BE BLESSED BROTHER...

Anonymous said...

God is using you will keep on using greatly through the music ministry!
God bless you and may the Holy Spirit pour our a new fresh anointing upon you my brother in Christ! :)

Mr. ED said...

Thank you guys so much all of these instructional videos! By learning guitar through these videos, I was able to play in a nursing home in Sacramento, California, USA. The grandmas and grandpas there were really blessed through the praise time and enjoyed it a lot. Praise God for using you guys to raise up the next generation of godly musicians! Keep up the great work!!!