Monday, June 9, 2008

Your Love Is Extravagant

Your Love Is ExtravagantA worship song by Darrell Evans. In John 15:12 - 15, it says, "My command is this: Love each other as I have loved you. Greater love has no one than this, that he lay down his life for his friends. You are my friends if you do what I command. I no longer call you servants, because a servant does not know his master's business. Instead, I have called you friends, for everything that I learned from my Father I have made known to you."

Jesus tells us in John 15 to remain in His love (v. 9). We do that by obeying Him (v. 10). And this is the specific command that He gives for us to obey: Love each other (v. 17). In addition to that, He tells us that He regards all those who do what He commands, His friends. And He has shown the greatest love, because He lay down His life for us. Indeed Christ's love for us is extravagant and unmatched. Let us remain in Him by being obedient to His command - to love each other.





-----------------------------------------------------------------
YOUR LOVE IS EXTRAVAGANT – Darrell Evans
-----------------------------------------------------------------
Tabbed by: Graham Choo
Email: da_tweens@yahoo.co.uk

Tuning: Standard (Capo 2nd Fret)
Intro:
  D/F# G  Bm Asus D/F# G   Bm Asus
e|-0---3---2---0---0---3---2---0---------------------------------|
B|-3---3---3---3---3---3---3---3---------------------------------|
G|-2---0---4---2---2---0---4---2---------------------------------|
D|-0---0---4---2---0---0---4---2---------------------------------|
A|-0---0---2---0---0---0---2---0---------------------------------|
E|-2---3-----------2---3-----------------------------------------| 
Verse:
  D/F# G  Bm Asus D/F# G  Bm Asus D/F# G  Bm Asus D/F# G   Bm Asus
e|-0---3---2---0---0---3---2---0---0---3---2---0---0---3---2---0-|
B|-3---3---3---3---3---3---3---3---3---3---3---3---2---3---3---3-|
G|-2---0---4---2---2---0---4---2---2---0---4---2---3---0---4---2-|
D|-0---0---4---2---0---0---4---2---0---0---4---2---0---0---4---2-|
A|-0---0---2---0---0---0---2---0---0---0---2---0---0---0---2---0-|
E|-2---3-----------2---3-----------2---3-----------2---3---------| 
  D/F# G  Bm Asus D/F# G  Bm Asus D/F# G  Bm Asus D/F# G   Bm Asus
e|-0---3---2---0---0---3---2---0---0---3---2---0---0---3---2---0-|
B|-3---3---3---3---3---3---3---3---3---3---3---3---2---3---3---3-|
G|-2---0---4---2---2---0---4---2---2---0---4---2---3---0---4---2-|
D|-0---0---4---2---0---0---4---2---0---0---4---2---0---0---4---2-|
A|-0---0---2---0---0---0---2---0---0---0---2---0---0---0---2---0-|
E|-2---3-----------2---3-----------2---3-----------2---3---------| 
Chorus:
   A   Em  G  Asus A   Em  G  Asus G
e|-0---3---3---0---0---3---3---0---3-----------------------------|
B|-0---3---3---3---0---3---3---3---3-----------------------------|
G|-2---0---0---2---2---0---0---2---0-----------------------------|
D|-2---2---0---2---2---2---0---2---0-----------------------------|
A|-0---2---0---0---0---2---0---0---0-----------------------------|
E|-----0---3-----------0---3-------3-----------------------------| 
Intro
Verse
Chorus 2x
Intro
| /  slide up
| \  slide down
| h  hammer-on
| p  pull-off
| ~  vibrato
| +  harmonic
| x  Mute note

Click HERE To Download PDF

2 comments:

Charles said...

that sounds so amazing. i swear i want to cry from hearing it. the song in the studio, by Casting Crowns, is done great. however, the acoustic sound that a live place gives melt my heart. i just now started learning how to play the guitar, i use an Epiphone PR150... but i hope to play like you one day.
keep up the good work, and may the God of love hold you near.

Anonymous said...

There is only one Man who Will make you completely fulfilled, and that Man is Jesus. I promise that if you seek him and let him into your heart you will experience rest and Everlasting Joy. I pray that you will take this message to heart and experience TRUE Happiness in Jesus. God Bless. ps. Pray to Jesus about all of your problems so that he will help you like he has helped me always.