Tuesday, August 12, 2008

Beautiful Love

Beautiful Love (Theme from "8th & Ocean")A great song by The Afters. Heard it on the radio before, and it has a cool riff to it. I understand that The Afters sing Christian songs, but I'm putting this under "Contemporary Music" since the lyrics seem to directed at a human lover, rather than God.





-----------------------------------------------------------------
BEAUTIFUL LOVE – The Afters
-----------------------------------------------------------------
Tabbed by: Graham Choo
Email: da_tweens@yahoo.co.uk

Tuning: Standard (Capo 3rd Fret)
Intro:
   G  Asus Em  G  Asus Em
e|-3---3---3---3---3---3------------------------------------------------|
B|-3---3---3---3---3---3------------------------------------------------|
G|-0---2---0---0---2---0------------------------------------------------|
D|-0---2---2---0---2---2------------------------------------------------|
A|-2---0---2---2---0---2------------------------------------------------|
E|-3-------0---3-------0------------------------------------------------|
OR
(Standard)
e|----------------------------------------------------------------------|
B|-11-10-11-10-11-10-11-10-11-10-11-10-11-10-11-10----------------------|
G|-10-10-10-10-10-10-10-10-10-10-10-10-10-10-10-10----------------------|
D|----------------------------------------------------------------------|
A|----------------------------------------------------------------------|
E|----------------------------------------------------------------------|
e|-------------------------------13-13-13-13----------------------------|
B|-11-10-11-13-13-13-13-11-10-11-11-11-11-11----------------------------|
G|-10-10-10-10-10-10-10-10-10-10-10-10-10-10----------------------------|
D|----------------------------------------------------------------------|
A|----------------------------------------------------------------------|
E|----------------------------------------------------------------------|
e|----------------------------------------------------------------------|
B|-11-10-11-10-11-10-11-10-11-10-11-10-11-10-11-10----------------------|
G|-10-10-10-10-10-10-10-10-10-10-10-10-10-10-10-10----------------------|
D|----------------------------------------------------------------------|
A|----------------------------------------------------------------------|
E|----------------------------------------------------------------------|
e|-------------------------------13-13-13-13----------------------------|
B|-11-10-11-13-13-13-13-11-10-11-11-11-11-11----------------------------|
G|-10-10-10-10-10-10-10-10-10-10-10-10-10-10----------------------------|
D|----------------------------------------------------------------------|
A|----------------------------------------------------------------------|
E|----------------------------------------------------------------------|
Intro
Verse:
   G  Asus Em  G  Asus Em
e|-3---3---3---3---3---3------------------------------------------------|
B|-3---3---3---3---3---3------------------------------------------------|
G|-0---2---0---0---2---0------------------------------------------------|
D|-0---2---2---0---2---2------------------------------------------------|
A|-2---0---2---2---0---2------------------------------------------------|
E|-3-------0---3-------0------------------------------------------------|
OR
   Bb  Cm  Gm  Bb  Cm  Gm
e|----------------------------------------------------------------------|
B|----------------------------------------------------------------------|
G|-3---5---3---3---5---3------------------------------------------------|
D|-3---5---3---3---5---3------------------------------------------------|
A|-1---3---5---1---3---5------------------------------------------------|
E|---------3-----------3------------------------------------------------|
Pre-Chorus:
   C9  Em  C9  Em Dsus
e|-3---3---3---3---3----------------------------------------------------|
B|-3---3---3---3---3----------------------------------------------------|
G|-0---0---0---0---2----------------------------------------------------|
D|-2---2---2---2---0----------------------------------------------------|
A|-3---2---3---2--------------------------------------------------------|
E|-----0-------0--------------------------------------------------------|
OR
   Eb                              Gm
e|-----3-----3---------3-----3---------5-----5---------5-----5----------|
B|----------------------------------------------------------------------|
G|---3-----3-----3---3-----3-----3---3-----3-----3---3-----3-----3------|
D|-1-----1-----1---1-----1-----1---5-----5-----5---5-----5-----5--------|
A|----------------------------------------------------------------------|
E|----------------------------------------------------------------------|
   Eb                              Gm              F
e|-----3-----3---------3-----3---------5-----5-----1--------------------|
B|-------------------------------------------------1--------------------|
G|---3-----3-----3---3-----3-----3---3-----3-----3-2--------------------|
D|-1-----1-----1---1-----1-----1---5-----5-----5---3--------------------|
A|-------------------------------------------------3--------------------|
E|-------------------------------------------------1--------------------|
Chorus 1:
  Am7  Em  G Dsus Am7  Em  G Dsus Am7  Em
e|-3---3---3---3---3---3---3---3---3---3--------------------------------|
B|-1---3---3---3---1---3---3---3---1---3--------------------------------|
G|-0---0---0---2---0---0---0---2---0---0--------------------------------|
D|-2---2---0---0---2---2---0---0---2---2--------------------------------|
A|-0---2---2-------0---2---2-------0---2--------------------------------|
E|-----0---3-----------0---3-----------0--------------------------------|
   Cm  Gm  Bb  F    Cm  Gm  Bb  F    Cm  Gm
e|-3---3---6--------3---3---6--------3---3------------------------------|
B|-4---3---6--------4---3---6--------4---3------------------------------|
G|-5---3---7---10---5---3---7---10---5---3------------------------------|
D|-5---3---8---10---5---3---8---10---5---3------------------------------|
A|-3---5---8---8----3---5---8---8----3---5------------------------------|
E|-----3---6------------3---6------------3------------------------------|
Interlude:
   G  Asus Em
e|-3---3---3------------------------------------------------------------|
B|-3---3---3------------------------------------------------------------|
G|-0---2---0------------------------------------------------------------|
D|-0---2---2------------------------------------------------------------|
A|-2---0---2------------------------------------------------------------|
E|-3-------0------------------------------------------------------------|
OR
e|----------------------------------------------------------------------|
B|-11-10-11-10-11-10-11-10-11-10-11-10-11-10-11-10----------------------|
G|-10-10-10-10-10-10-10-10-10-10-10-10-10-10-10-10----------------------|
D|----------------------------------------------------------------------|
A|----------------------------------------------------------------------|
E|----------------------------------------------------------------------|
e|-------------------------------13-13-13-13----------------------------|
B|-11-10-11-13-13-13-13-11-10-11-11-11-11-11----------------------------|
G|-10-10-10-10-10-10-10-10-10-10-10-10-10-10----------------------------|
D|----------------------------------------------------------------------|
A|----------------------------------------------------------------------|
E|----------------------------------------------------------------------|
Verse
Pre-Chorus
Chorus 2:
  Am7  Em  G Dsus Am7  Em  G Dsus
e|-3---3---3---3---3---3---3---3----------------------------------------|
B|-1---3---3---3---1---3---3---3----------------------------------------|
G|-0---0---0---2---0---0---0---2----------------------------------------|
D|-2---2---0---0---2---2---0---0----------------------------------------|
A|-0---2---2-------0---2---2--------------------------------------------|
E|-----0---3-----------0---3--------------------------------------------|
OR
   Cm  Gm  Bb  F    Cm  Gm  Bb  F
e|-3---3---6--------3---3---6-------------------------------------------|
B|-4---3---6--------4---3---6-------------------------------------------|
G|-5---3---7---10---5---3---7---10--------------------------------------|
D|-5---3---8---10---5---3---8---10--------------------------------------|
A|-3---5---8---8----3---5---8---8---------------------------------------|
E|-----3---6------------3---6-------------------------------------------|
Solo:
  Am7  Em  G Dsus Am7  Em  G  Dsus
e|-3---3---3---3---3---3---3---3----------------------------------------|
B|-1---3---3---3---1---3---3---3----------------------------------------|
G|-0---0---0---2---0---0---0---2----------------------------------------|
D|-2---2---0---0---2---2---0---0----------------------------------------|
A|-0---2---2-------0---2---2--------------------------------------------|
E|-----0---3-----------0---3--------------------------------------------|
OR
e|-------13-------13----------------------------------------------------|
B|-13^15----13^15----15v13-11-11h13~-11-13-11-13^15v13-11---------------|
G|----------------------------------------------------------------------|
D|----------------------------------------------------------------------|
A|----------------------------------------------------------------------|
E|----------------------------------------------------------------------|
e|-------13-------13----------------------------------------------------|
B|-13^15----13^15----15v13-11-11h13~-11-13-11-13^15v13-11---------------|
G|----------------------------------------------------------------------|
D|----------------------------------------------------------------------|
A|----------------------------------------------------------------------|
E|----------------------------------------------------------------------|
e|-------13-------13----------------------------------------------------|
B|-13^15----13^15----15v13-11-11h13~-11-13-11-13^15v13-11---------------|
G|----------------------------------------------------------------------|
D|----------------------------------------------------------------------|
A|----------------------------------------------------------------------|
E|----------------------------------------------------------------------|
e|-------13-------13----------------------------------------------------|
B|-13^15----13^15----15v13-11-11h13~-11-13-11-13^15v13-11---------------|
G|----------------------------------------------------------------------|
D|----------------------------------------------------------------------|
A|----------------------------------------------------------------------|
E|----------------------------------------------------------------------|
Bridge:
  Am7  Em  G Dsus Am7  Em  G Dsus Am7  Em  G Dsus Am7  Em  G  Dsus
e|-3---3---3---3---3---3---3---3---3---3---3---3---3---3---3---3--------|
B|-1---3---3---3---1---3---3---3---1---3---3---3---1---3---3---3--------|
G|-0---0---0---2---0---0---0---2---0---0---0---2---0---0---0---2--------|
D|-2---2---0---0---2---2---0---0---2---2---0---0---2---2---0---0--------|
A|-0---2---2-------0---2---2-------0---2---2-------0---2---2------------|
E|-----0---3-----------0---3-----------0---3-----------0---3------------|
  Am7  Em  G Dsus Am7  Em  G Dsus
e|-3---3---3---3---3---3---3---3----------------------------------------|
B|-1---3---3---3---1---3---3---3----------------------------------------|
G|-0---0---0---2---0---0---0---2----------------------------------------|
D|-2---2---0---0---2---2---0---0----------------------------------------|
A|-0---2---2-------0---2---2--------------------------------------------|
E|-----0---3-----------0---3--------------------------------------------|
OR
   Cm    Gm    Bb    F       Cm    Gm    Bb    F
e|-----3-----3-----6------8------3-----3-----6------8-------------------|
B|-----4-----3-----6------8------4-----3-----6------8-------------------|
G|-----5-----3-----7------10-----5-----3-----7------10------------------|
D|---5-----3-----8-----10------5-----3-----8-----10---------------------|
A|-3-----------------8-------3-----------------8------------------------|
E|-------3-----6-------------------3-----6------------------------------|
   Cm              Gm              Bb              F
e|-----3-----3---------3-----3---------6-----6----------8-------8-------|
B|-----4-----4---------3-----3---------6-----6----------8-------8-------|
G|-----5-----5---------3-----3---------7-----7----------10------10------|
D|---5-----5-----5---3-----3-----3---8-----8-----8---10------10------10-|
A|-3-----3-----3-----------------------------------8-------8-------8----|
E|-----------------3-----3-----3---6-----6-----6------------------------|
   Cm              Gm              Bb              F
e|-----3-----3---------3-----3---------6-----6-----8--------------------|
B|-----4-----4---------3-----3---------6-----6-----8--------------------|
G|-----5-----5---------3-----3---------7-----7-----10-------------------|
D|---5-----5-----5---3-----3-----3---8-----8-----8-10-------------------|
A|-3-----3-----3-----------------------------------8--------------------|
E|-----------------3-----3-----3---6-----6-----6------------------------|
   Cm  Gm  Bb  F    Cm  Gm  Bb  F
e|-3---3---6--------3---3---6-------------------------------------------|
B|-4---3---6---8----4---3---6---8---------------------------------------|
G|-5---3---7---10---5---3---7---10--------------------------------------|
D|-5---3---8---10---5---3---8---10--------------------------------------|
A|-3---5---8---8----3---5---8---8---------------------------------------|
E|-----3---6------------3---6-------------------------------------------| 
Chorus 2 2x 
Outro:
  Am7  Em  G Dsus Am7  Em  G Dsus Am7  Em
e|-3---3---3---3---3---3---3---3---3---3--------------------------------|
B|-1---3---3---3---1---3---3---3---1---3--------------------------------|
G|-0---0---0---2---0---0---0---2---0---0--------------------------------|
D|-2---2---0---0---2---2---0---0---2---2--------------------------------|
A|-0---2---2-------0---2---2-------0---2--------------------------------|
E|-----0---3-----------0---3-----------0--------------------------------|
OR
   Cm  Gm  Bb  F    Cm  Gm  Bb  F    Cm  Gm
e|-3---3---6--------3---3---6--------3---3------------------------------|
B|-4---3---6---8----4---3---6---8----4---3------------------------------|
G|-5---3---7---10---5---3---7---10---5---3------------------------------|
D|-5---3---8---10---5---3---8---10---5---3------------------------------|
A|-3---5---8---8----3---5---8---8----3---5------------------------------|
E|-----3---6------------3---6------------3------------------------------|
| /  slide up
| \  slide down
| h  hammer-on
| p  pull-off
| ~  vibrato
| +  harmonic
| x  Mute note
| ^  Bend up
| v  Bend down

Click HERE To Download PDF

4 comments:

Kevin said...

For the solo of the second guitar you have this listed "13^15" but what does the " ^" mean and also what does the "v" mean in "15v13"

Graham Choo said...

Hi Kevin, sorry I forgot to explain those notations in the expression. Shall put them in.
13^15 means bend up the string from the 13th fret until you get a 15th-fret sound.
15v13 means bend down the string :)

Anonymous said...

Is there not a pdf with the lyrics and chords for this song? thanks

Graham Choo said...

Hi there, thanks for alerting me to the missing lyrics and chords. I've updated the post and included it in. Thanks!