Friday, September 19, 2008

For Who You Are

For Who You AreA worship song by Hillsong. It speaks of worshiping Jesus for who He is, and there are several passages that reveal His attributes and relation to us, of which here are a few:

Jesus is holy (Luke 1:35)
Jesus is righteous (2 Timothy 4:8)
Jesus is faithful (Revelation 3:14)
Jesus is our Saviour (Acts 13:23)
Jesus is our Healer (1 Peter 2:24)
Jesus is our Redeemer (Isaiah 59:20)
Jesus is our friend (John 15:14)

Indeed He is worthy to be praised because of who He is, and because of what He has done. Thank you Jesus that we have salvation from God's wrath because You bore it in our stead, and imputed Your righteousness on us, that we can be called children of God!





-----------------------------------------------------------------
FOR WHO YOU ARE – Hillsong
-----------------------------------------------------------------
Tabbed by: Graham Choo
Email: da_tweens@yahoo.co.uk

Tuning: Standard
Intro:
   G   C9  G   C9
e|-3---3---3---3-------------------------------------------------|
B|-3---3---3---3-------------------------------------------------|
G|-0---0---0---0-------------------------------------------------|
D|-0---2---0---2-------------------------------------------------|
A|-2---3---2---3-------------------------------------------------|
E|-3-------3-----------------------------------------------------|

Verse:
   G   C9  G   C9
e|-3---3---3---3-------------------------------------------------|
B|-3---3---3---3-------------------------------------------------|
G|-0---0---0---0-------------------------------------------------|
D|-0---2---0---2-------------------------------------------------|
A|-2---3---2---3-------------------------------------------------|
E|-3-------3-----------------------------------------------------|

Pre-Chorus:
   Em Dsus C9 Dsus Em Dsus C9
e|-3---3---3---3---3---3---3-------------------------------------|
B|-3---3---3---3---3---3---3-------------------------------------|
G|-0---2---0---2---0---2---0-------------------------------------|
D|-2---0---2---0---2---0---2-------------------------------------|
A|-2-------3-------2-------3-------------------------------------|
E|-0---------------0---------------------------------------------|

Chorus:
   G   Em Dsus C9
e|-3---3---3---3-------------------------------------------------|
B|-3---3---3---3-------------------------------------------------|
G|-0---0---2---0-------------------------------------------------|
D|-0---2---0---2-------------------------------------------------|
A|-2---2-------3-------------------------------------------------|
E|-3---0---------------------------------------------------------|

Interlude 1:
   G   C9
e|-3---3---------------------------------------------------------|
B|-3---3---------------------------------------------------------|
G|-0---0---------------------------------------------------------|
D|-0---2---------------------------------------------------------|
A|-2---3---------------------------------------------------------|
E|-3-------------------------------------------------------------|

Verse

Pre-Chorus

Chorus 2x

Interlude 2:
   G   Em Dsus C9
e|-3---3---3---3-------------------------------------------------|
B|-3---3---3---3-------------------------------------------------|
G|-0---0---2---0-------------------------------------------------|
D|-0---2---0---2-------------------------------------------------|
A|-2---2-------3-------------------------------------------------|
E|-3---0---------------------------------------------------------|

Bridge:
   G   Em Dsus C9
e|-3---3---3---3-------------------------------------------------|
B|-3---3---3---3-------------------------------------------------|
G|-0---0---2---0-------------------------------------------------|
D|-0---2---0---2-------------------------------------------------|
A|-2---2-------3-------------------------------------------------|
E|-3---0---------------------------------------------------------|

Bridge 2x

Chorus 2x

| /  slide up
| \  slide down
| h  hammer-on
| p  pull-off
| ~  vibrato
| +  harmonic
| x  Mute note

Click HERE To Download PDF

4 comments:

andy said...

first w00t w00t. ive been waiting for this for days. thanks

Anonymous said...

thank you very much for this song!!

Anonymous said...

How the strumming like? Any idea?

Graham Choo said...

I wrote it in the chatbox. It's D UDUD UDUD DU

But you can always wait for the instructional video, which will explain it much better :)