Friday, October 17, 2008

Spirit Touch Your Church

A worship song by Kim Bollinger. It is a song about praying for revival among the individuals that make up the church. Paul prayed similarly for the church in Ephesus in Ephesians 3:16-19. He prays for God's power through His Holy Spirit, to strengthen them in their faith in Christ. And he prays for a deeper understanding of the extent of Christ's love for them, having been brought to salvation by His love.

Revival starts with understanding how broken we are before God, of how we are so in need of a Saviour, that is Christ, and of how deep and wide Christ's love is for us. And we need the Holy Spirit to convict us of that because it surpasses our knowledge, our logical reasoning. Spirit touch Your chruch, stir the hearts of men. Revive us Lord, with Your passion once again. Only then can I love others like Jesus did, through the power of His Gospel!





-----------------------------------------------------------------
SPIRIT TOUCH YOUR CHURCH – Kim Bollinger
-----------------------------------------------------------------
Tabbed by: Graham Choo
Email: da_tweens@yahoo.co.uk

Tuning: Standard (Capo 3rd Fret)
Intro:
   G   C9  G   C9 Dsus
e|-3---3---3---3---3---------------------------------------------|
B|-3---3---3---3---3---------------------------------------------|
G|-0---0---0---0---2---------------------------------------------|
D|-0---2---0---2---0---------------------------------------------|
A|-2---3---2---3-------------------------------------------------|
E|-3-------3-----------------------------------------------------|

Verse:
   G  D/F# Em  C9 Dsus G  D/F# Em Dsus C9 Am7 Dsus
e|-3---3---3---3---3---3---3---3---3---3---3---3-----------------|
B|-3---3---3---3---3---3---3---3---3---3---1---3-----------------|
G|-0---2---0---0---2---0---2---0---2---0---0---2-----------------|
D|-0---0---2---2---0---0---0---2---0---2---2---0-----------------|
A|-2---0---2---3-------2---0---2-------3---0---------------------|
E|-3---2---0-----------3---2---0---------------------------------|

Chorus:
   C9 Dsus Bm  Em  C9 Dsus Bm  Em  C9 Dsus G  D/F# Em
e|-3---3---2---0---3---3---2---0---3---3---3---3---3-------------|
B|-3---3---3---0---3---3---3---0---3---2---3---3---3-------------|
G|-0---2---4---0---0---2---4---0---0---2---0---2---0-------------|
D|-2---0---4---2---2---0---4---2---2---0---0---0---2-------------|
A|-3-------2---2---3-------2---2---3-------2---0---2-------------|
E|-------------0---------------0-----------3---2---0-------------|

   C9 Dsus Em  C9 Dsus G
e|-3---3---3---3---3---3-----------------------------------------|
B|-3---3---3---3---3---3-----------------------------------------|
G|-0---2---0---0---2---0-----------------------------------------|
D|-2---0---2---2---0---0-----------------------------------------|
A|-3-------2---3-------2-----------------------------------------|
E|---------0-----------3-----------------------------------------|

Interlude:
   C9 Dsus
e|-3---3---------------------------------------------------------|
B|-3---3---------------------------------------------------------|
G|-0---2---------------------------------------------------------|
D|-2---0---------------------------------------------------------|
A|-3-------------------------------------------------------------|
E|---------------------------------------------------------------|

Verse

Chorus 2x

Outro:
   C9 Dsus G
e|-3---3---3-----------------------------------------------------|
B|-3---3---3-----------------------------------------------------|
G|-0---2---0-----------------------------------------------------|
D|-2---0---0-----------------------------------------------------|
A|-3-------2-----------------------------------------------------|
E|---------3-----------------------------------------------------|

| /  slide up
| \  slide down
| h  hammer-on
| p  pull-off
| ~  vibrato
| +  harmonic
| x  Mute note


Click HERE To Download PDF

6 comments:

Amauri said...

Hello,

My name is Amauri and I live in Brazil.

I visit your movie in the youtube and I liked very much. (http://www.youtube.com/user/jedimindless)

I dont speak english but I am studing english.

I want your contacts of MSN for a new friends.

Good Bye

Amauri
e-mail: amaraujos@ig.com.br

Joshua said...

Hi Daniel,
My name is Josh and I was wondering if you could get me a more comprehensive strum pattern. I'm having trouble with the timing and I really love this song. IT was such a blessing when I found it.
Thank you so much for your time,
JOsh

Graham Choo said...

Hi Joshua, am glad that you find the song and lyrics meaningful. May God use it mightily to work in your spiritual walk with Him.

I'm currently writing out the strumming patterns for all the Christian songs on the blog. Am at P right now, so I'm reaching S soon :)

mitch said...

hi! I liked the way you sung "Spirit Touch Your Church". I love that song. :) God bless.

Max Ho said...

Hi Daniel,

Thanks for your wonderful lessons here. It's benefitting me tremendously.

I also wanted to ask about the strumming pattern for "We need" in the 2nd line. Is the B/F# just 1 down stroke? Thank you!

Graham Choo said...

Hey Max,

Thanks for spotting that! The D/F# should be strumming pattern (4) - D DU.
Have changed it :)