Thursday, October 2, 2008

Thank You Lord

Thank You Lord (Live) A worship song by Don Moen. In Psalm 30, David had many things to be thankful to God about. God delivered him from his enemies (Psalm 30:1). God heard his cries and healed him (Psalm 30:2). God judges, but He is merciful as well (Psalm 30:5). God brought Him joy in the midst of his mourning (Psalm 30:11). And David concludes in Psalm 30:12 - that because God is good, he will give thanks to God forevermore.

We likewise have many things to thank God for - the most important of which is for Jesus Christ His Son, who is our Redeemer and Saviour. He was made to be the sin offering on our behalf, in order that we might be righteous before God (2 Corinthians 5:21). You took my sin and my shame, thank You Lord!





-----------------------------------------------------------------
THANK YOU LORD – Don Moen
-----------------------------------------------------------------
Tabbed by: Graham Choo
Email: da_tweens@yahoo.co.uk

Tuning: Standard (Capo 3rd Fret)
Intro:
   D   A   G   A
e|-5---5---3---5-------------------------------------------------|
B|-3---2---3---2-------------------------------------------------|
G|-2---2---0---2-------------------------------------------------|
D|-0---2---0---2-------------------------------------------------|
A|-----0---2---0-------------------------------------------------|
E|---------3-----------------------------------------------------|

Intro

Verse:
   D   A   Em  Bm  G   A   G   A
e|-2---0---0---2---3---0---3---0---------------------------------|
B|-3---0---0---3---3---0---3---0---------------------------------|
G|-2---2---0---4---0---2---0---2---------------------------------|
D|-0---2---2---4---0---2---0---2---------------------------------|
A|-----0---2---2---2---0---2---0---------------------------------|
E|---------0-------3-------3-------------------------------------|

Verse

Chorus 1:
   D   A   Bm  G   D   A   G   A   D   A   G   A
e|-2---0---2---3---2---0---3---0---2---0---3---0-----------------|
B|-3---0---3---3---3---0---3---0---3---0---3---0-----------------|
G|-2---2---4---0---2---2---0---2---2---2---0---2-----------------|
D|-0---2---4---0---0---2---0---2---0---2---0---2-----------------|
A|-----0---2---2-------0---2---0-------0---2---0-----------------|
E|-------------3-----------3---------------3---------------------|

Intro

Verse 2x

Chorus 1

Interlude:
   D   A   G   A
e|-2---0---3---0-------------------------------------------------|
B|-3---0---3---0-------------------------------------------------|
G|-2---2---0---2-------------------------------------------------|
D|-0---2---0---2-------------------------------------------------|
A|-----0---2---0-------------------------------------------------|
E|---------3-----------------------------------------------------|

Chorus 2:
   E   B   A   B   E   B   A   B
e|-0---0---0---0---0---0---0---0---------------------------------|
B|-0---0---0---0---0---0---0---0---------------------------------|
G|-1---4---2---4---1---4---2---4---------------------------------|
D|-2---4---2---4---2---4---2---4---------------------------------|
A|-2---2---0---2---2---2---0---2---------------------------------|
E|-0---------------0---------------------------------------------|

Outro:
   E   B   A   B   E   B   A   B   E
e|-0---0---0---0---0---0---0---0---0-----------------------------|
B|-0---0---0---0---0---0---0---0---0-----------------------------|
G|-1---4---2---4---1---4---2---4---1-----------------------------|
D|-2---4---2---4---2---4---2---4---2-----------------------------|
A|-2---2---0---2---2---2---0---2---2-----------------------------|
E|-0---------------0---------------0-----------------------------|

| /  slide up
| \  slide down
| h  hammer-on
| p  pull-off
| ~  vibrato
| +  harmonic
| x  Mute note

Click HERE To Download PDF

1 comment:

emorejj said...

You are so good. you played it great. you have a nice voice and quite cute :D. thanks for covering this song and the tutorial really helps! i really love this song! thanks and keep doing what you're doing. God Bless you!