Saturday, December 6, 2008

Fukai Mori

A Japanese song by Do As Infinity. Was played in an anime called Inuyasha, which I watched quite a while back. Has a beautiful tune to it, and it's easy to play too! Tabs are below for those who are interested in learning. Also, I played it together with a midi in the background, to complement the song. Enjoy!



-----------------------------------------------------------------
FUKAI MORI – Do As Infinity
-----------------------------------------------------------------
Tabbed by: Graham Choo
Email: da_tweens@yahoo.co.uk

Tuning: Standard

Intro:
Eb Bb F Gm Eb Bb F Gm
e|-6---6---1---3---6---6---1---3---------------------------------|
B|-6---6---1---3---6---6---1---3---------------------------------|
G|-8---7---2---3---8---7---2---3---------------------------------|
D|-8---8---3---5---8---8---3---5---------------------------------|
A|-6---8---3---5---6---8---3---5---------------------------------|
E|-----6---1---3-------6---1---3---------------------------------|

Verse:
Eb Bb F Gm Eb Bb F Gm Eb Bb F Gm Eb Bb F Gm
e|-6---6---1---3---6---6---1---3---6---6---1---3---6---6---1---3-|
B|-6---6---1---3---6---6---1---3---6---6---1---3---6---6---1---3-|
G|-8---7---2---3---8---7---2---3---8---7---2---3---8---7---2---3-|
D|-8---8---3---5---8---8---3---5---8---8---3---5---8---8---3---5-|
A|-6---8---3---5---6---8---3---5---6---8---3---5---6---8---3---5-|
E|-----6---1---3-------6---1---3-------6---1---3-------6---1---3-|

Pre-Chorus:
C9 G D Em C9 G Dsus D D B7
e|-3---3---2---3---3---3---3---2---0---2---2---------------------|
B|-3---3---3---3---3---3---3---3---3---3---0---------------------|
G|-0---0---2---0---0---0---2---2---2---2---2---------------------|
D|-2---0---0---2---2---0---0---0---0---0---1---------------------|
A|-3---2-------2---3---2-------------------2---------------------|
E|-----3-------0-------3-----------------------------------------|

Chorus:
Em C9 D G D/F# Em C9 B7 Em
e|-3---3---2---3---3---3---3---2---3-----------------------------|
B|-3---3---3---3---3---3---3---0---3-----------------------------|
G|-0---0---2---0---2---0---0---2---0-----------------------------|
D|-2---2---0---0---0---2---2---1---2-----------------------------|
A|-2---3-------2---0---2---3---2---2-----------------------------|
E|-0-----------3---2---0-----------0-----------------------------|

Em C9 D G D/F# Em C9 B7 Em
e|-3---3---2---3---3---3---3---2---3-----------------------------|
B|-3---3---3---3---3---3---3---0---3-----------------------------|
G|-0---0---2---0---2---0---0---2---0-----------------------------|
D|-2---2---0---0---0---2---2---1---2-----------------------------|
A|-2---3-------2---0---2---3---2---2-----------------------------|
E|-0-----------3---2---0-----------0-----------------------------|

Intro

Verse

Pre-Chorus

Chorus

Bridge:
D C9 D/B C9 D C9 D/B B7
e|-0---0---0---0---0---0---0---2---------------------------------|
B|-3---3---3---3---3---3---3---0---------------------------------|
G|-2---0---2---0---2---0---2---2---------------------------------|
D|-0---2---0---2---0---2---0---1---------------------------------|
A|-----3---2---3-------3---2---2---------------------------------|
E|---------------------------------------------------------------|

Chorus 2x

Outro:
Em C9 B7 Em Em C9 B7 Em
e|-3---3---2---3---3---3---2---3---------------------------------|
B|-3---3---0---3---3---3---0---3---------------------------------|
G|-0---0---2---0---0---0---2---0---------------------------------|
D|-2---2---1---2---2---2---1---2---------------------------------|
A|-2---3---2---2---2---3---2---2---------------------------------|
E|-0-----------0---0-----------0---------------------------------|

| / slide up
| \ slide down
| h hammer-on
| p pull-off
| ~ vibrato
| + harmonic
| x Mute note

9 comments:

onyx said...

wow! can another guitar do the midi part... hope u can add it :D

Anonymous said...

Hey, i saw some other vid use 313311 as the fourth chord instead of a Gm. Does it sound more accurate?

Graham Choo said...

Hey actually they both sound about the same, depending on whether you want the chord to sound more "open", in which case you could play the 313311.
From hearing the live performance, they're playing the open chord. But you can always play it however you want :)

Arsenty said...

Beautiful song! I want to learn a song!But I don't know how to play right hand =( Sorry, i'm a newbie =( help me please!!!I'll be very grateful!

Graham Choo said...

Hey Arsenty, do you mean that you play the left-handed guitar?
Actually the chords are still the same on a lefty. So you can follow the tabs in the post to play the song as well :)
All the best!

Arsenty said...

yes! domo arigato gozaimasu^^I will practice =)

loveanime925 said...

OMG! YOUR AMAZING! anyways...can you plz tell me the strum pattern?

loveanime925 said...

Can someone tell me the strum pattern to this song...i cant figure it out!:( help me!

Graham Choo said...

Hey loveanime925,
The strumming pattern for the song is D UDUD UDUD DU.