Monday, April 27, 2009

By His Wounds

By His WoundsA worship song by Glory Revealed, a band formed by many famous artistes such as Mac Powell from Third Day, Shane & Shane, Steven Curtis Chapman... just to name a few. The beautiful thing about their songs are that the lyrics are taken from the Old Testament. The lyrics for this song are taken from Isaiah 53:5.

The prophecy in Isaiah speaks of Jesus, the suffering servant who was the perfect Lamb that was slain for us, that we might once again be at peace with God - a relationship that needed to be healed since the time Adam sinned. Christ has opened a way for us to God, and to all that would want and desire to know Him, He will justify (Isaiah 53:11). Indeed, by His wounds we are healed!





-----------------------------------------------------------------
BY HIS WOUNDS – Glory Revealed
-----------------------------------------------------------------
Tabbed by: Graham Choo
Email: da_tweens@yahoo.co.uk

Tuning: Standard
Intro:
   C9    C D C   C9    C D C
e|-0-----0/0\0---0-----0/0\0---------------------------------------|
B|-3---3-1/3\1---3---3-1/3\1---------------------------------------|
G|-0-0---0/0\0---0-0---0/0\0---------------------------------------|
D|-2-----2/4\2---2-----2/4\2---------------------------------------|
A|-3-----3/5\3---3-----3/5\3---------------------------------------|
E|-----------------------------------------------------------------| 
OR
e|----------12----------12-----------------------------------------|
B|----13/15-------13/15--------------------------------------------|
G|-12----------12--------------------------------------------------|
D|-----------------------------------------------------------------|
A|-----------------------------------------------------------------|
E|-----------------------------------------------------------------|

Verse 1:
   G  D/F# Em  C9  D   G       G
e|-3---3---3---0---0---3---3---3-----------------------------------|
B|-3---3---3---3---3---3---3---3-----------------------------------|
G|-0---2---0---0---0---0---0h2-2p0---------------------------------|
D|-0---0---2---2---4---0---0---0-----------------------------------|
A|-2---0---2---3---5---2---0---0-----------------------------------|
E|-3---2---0-----------3---3---3-----------------------------------| 
OR
   G                           Em
e|---------------------------------------0-----------------12+-----|
B|-----3---------------------------3-----------------3-----12+-----|
G|-----0---0h2---2p0---0-------------0-----------------0---12+-----|
D|---0-----0-----0-----0---------4-----4-------0---4-----4---------|
A|-----------------------------------------0h2---------------------|
E|-3-----3-----3-----3---2h3p2-0-----------------0-----------------| 

         C9     D/F#       G
e|-------0---------------------------------------------------------|
B|-------3---3-------3-3-------3-----------------------------------|
G|-------0---0-------2-2-------0---0h2---2p0---0-------------------|
D|-----0-2-2-------0---0-----0-----0-----0-----0-------------------|
A|-0h2---3-------------0-------------------------------------------|
E|-------------0h2-----2---3-----3-----3-----3---------------------|

Verse 1

Chorus:
   C9  D   Em D/F# G   C9  D   Em D/F# G   C D C
e|-3---2---3---3---3---3---2---3---3---3---0/0\0-------------------|
B|-3---3---3---3---3---3---3---3---3---3---3/3\3-------------------|
G|-0---2---0---2---0---0---2---0---2---0---0/0\0-------------------|
D|-2---0---2---0---0---2---0---2---0---0---2/4\2-------------------|
A|-3-------2---0---2---3-------2---0---2---3/5\3-------------------|
E|---------0---2---3-----------0---2---3---------------------------| 
OR
   C9 Dsus Em D/F# G  D/G  C9 Dsus Em D/F# G  D/G  C9 D/C  C9
e|-3---3---3---3---3---2---3---3---3---3---3---2---0---2---0-------|
B|-3---3---3---3---3---3---3---3---3---3---3---3---3---3---3-------|
G|-0---2---0---2---0---0---0---2---0---2---0---0---0---0---0-------|
D|-2---0---2---0---0---0---2---0---2---0---0---0---2---0---2-------|
A|-3-------2---0---2---0---3-------2---0---2---0---3---3---3-------|
E|---------0---2---3---3-----------0---2---3---3-------------------|

Verse 2:
   G  D/F# Em  C9  D
e|-3---3---3---0---0-----------------------------------------------|
B|-3---3---3---3---3-----------------------------------------------|
G|-0---2---0---0---0-----------------------------------------------|
D|-0---0---2---2---4-----------------------------------------------|
A|-2---0---2---3---5-----------------------------------------------|
E|-3---2---0-------------------------------------------------------| 
OR
e|-15-17h19-17-15--------------------------------------------------|
B|----------------17-7-7h8p7---------------------------------------|
G|---------------------------9-7-----------------------------------|
D|-------------------------------10--------------------------------|
A|-----------------------------------------------------------------|
E|-----------------------------------------------------------------|

Interlude:
  Am7 G/B  C9  Em D/F# G   C9  D  Am7 G/B
e|-3---3---3---3---3---3---3---2---3---3---------------------------|
B|-1---3---3---3---3---3---3---3---1---3---------------------------|
G|-0---0---0---0---2---0---0---2---0---0---------------------------|
D|-2---0---2---2---0---0---2---0---2---0---------------------------|
A|-0---2---3---2---0---2---3-------0---2---------------------------|
E|-------------0---2---3-------------------------------------------| 
OR
e|-----------------------------------------------------------------|
B|-10-12-13p12-10----------------10/12-----------------------------|
G|----------------12-11~-12-9-12-----------------------------------|
D|-----------------------------------------------------------------|
A|-----------------------------------------------------------------|
E|-----------------------------------------------------------------|

e|----15----14----12-------------15h17-19-19-19-17-15----12-14-15--|
B|-15----15----15-------15/17-15----------------------15-----------|
G|-------------------16--------------------------------------------|
D|-----------------------------------------------------------------|
A|-----------------------------------------------------------------|
E|-----------------------------------------------------------------|

e|-----------------------------------10----------------------------|
B|-15/17\15/17--------------------------10-10----------------------|
G|-------------12p9-12-9-11h12-11-------------12-11----------------|
D|--------------------------------12-------------------------------|
A|-----------------------------------------------------------------|
E|-----------------------------------------------------------------|

e|-----------------------------------------------------------------|
B|-10--------------------------------------------------------------|
G|----11h12p11-9---------------------------------------------------|
D|---------------12-10p9-10----------------------------------------|
A|-----------------------------------------------------------------|
E|-----------------------------------------------------------------|

Chorus

Verse 3:
   G  D/F# Em  C9  D   Em D/F# G  Am7 G/B  C9  C D C
e|-3---3---3---0---0---3---3---3---3---3---3---0/0\0---------------|
B|-3---3---3---3---3---3---3---3---1---3---3---3/3\3---------------|
G|-0---2---0---0---0---0---2---0---0---0---0---0/0\0---------------|
D|-0---0---2---2---4---2---0---0---2---0---2---2/4\2---------------|
A|-2---0---2---3---5---2---0---2---0---2---3---3/5\3---------------|
E|-3---2---0-----------0---2---3-----------------------------------| 
OR
   G                           Em
e|---------------------------------------0-----------------12+-----|
B|-----3---------------------------3-----------------3-----12+-----|
G|-----0---0h2---2p0---0-------------0-----------------0---12+-----|
D|---0-----0-----0-----0---------4-----4-------0---4-----4---------|
A|-----------------------------------------0h2---------------------|
E|-3-----3-----3-----3---2h3p2-0-----------------0-----------------|

         C9     D/F#       Em
e|-------0-----------------3-------------10------------------------|
B|-------3---3-------3-3---3----10h12-13----10/12-10---------------|
G|-------0---0-------2-2---0-12----------------------12~-----------|
D|-----0-2-2-------0---0---2---------------------------------------|
A|-0h2---3-------------0---2---------------------------------------|
E|-------------0h2-----2---0---------------------------------------|

   Am D/B  C9  C D C
e|-0---0---3---0/0\0-----------------------------------------------|
B|-1---3---3---1/3\1-----------------------------------------------|
G|-0---2---0---0/0\0-----------------------------------------------|
D|-2---0---2---2/4\2-----------------------------------------------|
A|-0---2---3---3/5\3-----------------------------------------------|
E|-----------------------------------------------------------------|

Outro:
   G   Em Am7 Dsus C9 D/C  G
e|-3---3---3---3---3---2---3---------------------------------------|
B|-3---3---1---3---3---3---3---------------------------------------|
G|-0---0---0---2---0---0---0---------------------------------------|
D|-0---2---2---0---2---0---0---------------------------------------|
A|-2---2---0-------3---3---2---------------------------------------|
E|-3---0-------------------3---------------------------------------| 
OR
   C9            Em         Am7  D   C9           D/C            G
e|-------------------------0-3---3---0-----0-------2-----0-------0-|
B|-----3-------------3-------1---1---3-3-----3-----3-3-----3-----3-|
G|-----2---------------0-----0---2---0---0-----0---0---0-----0---2-|
D|---0-------------4-----4---2---0---2-----------2-0-----------2-0-|
A|---------------------------0-------3-------------3-------------0-|
E|-3-----2-2h3p2-0-----------------------------------------------3-|

| /  slide up
| \  slide down
| h  hammer-on
| p  pull-off
| ~  vibrato
| +  harmonic
| x  Mute note

Click HERE To Download PDF

12 comments:

Boyon said...

I am proud of you guys! Lift up Christ!

Can you email me the lyric of the song?

Thank you.
Your brother in Christ,
Boyon.

Boyon said...

I am serving the Lord with my health messages in Healthy17.

Feel free to visit my blog http://healthy17.blogspot.com

Boyon said...

Anyway, here is my email,
seventh7day2007@yahoo.com

janax said...
This comment has been removed by the author.
janax said...

hi guys! may i ask what is your religion.? thanks.! God bless you more.!

Graham Choo said...

Hey janax, religion is basically a set of beliefs that one adopts, that has a spiritual aspect to it. In a way, Christianity is a religion, but it is more than that because it is a ongoing relationship with a living God.

Christianity is the belief that the Bible is the Word of God which tells us of His salvation plan for mankind - Jesus, who died on the cross to save us from our sins which lead to death.

You can check out Two Ways To Live at http://www.twowaystolive.com/ to find out more about Christianity. God bless! :)

rd=) said...

Praise Jesus! Thank you Lord for all you've done to let us know who you are. what great love is this that you shed your blood, you gave your life. as the word of God says there's truly salvation, healing, forgiveness, new life, hope, abundance, prosperity, and anointing of the Holy Spirit in the cross of Christ. I believe Lord. i give you my life, i'll serve you, follow you, obey you and love you always and forever by your grace. Amen and amen!

Anonymous said...

how do u do the strum?

Graham Choo said...

Hey, the instructional video for this song will be out soon. You'll find out how to play the chords and strumming pattern for the song then :) God bless!

lito said...

thank you very much for the instructional video.. it helps a lot..

God bless you

kim said...

Thank you so much - this is a huge service to worship musicians everywhere! Blessings on you!

CA said...

Could you guys do a mandolin instructional please?