Saturday, September 5, 2009

You'll Come

You'll ComeA worship song by Hillsong. In Hosea 6:1-3, prophet Hosea calls on Israel to return to the Lord in repentance. We read the previous chapters that Israel has prostituted itself to idols, and the book of Hosea is such a wonderful account of God's patience and love for His people despite their unfaithfulness.

Let us decide to wait upon the Lord, and press on to acknowledge Him (Hosea 6:3) because He is patient and loving, and will heal, revive, and restore (Hosea 6:1-2) His people. God has promised that He will come to do all that, and we see the fulfillment of it when Christ came to die for our sins and reconcile us back to God. And we will see the final fulfillment of it when He shall come again to bring complete healing, revival, and restoration. Chains be broken, lives be healed, eyes be opened, Christ is revealed!





-----------------------------------------------------------------
YOU’LL COME – Hillsong
-----------------------------------------------------------------
Tabbed by: Graham Choo
Email: da_tweens@yahoo.co.uk

Tuning: Standard (Capo 2nd Fret)
Intro:
   D  Dsus D  Dsus
e|-0h2-2h3-0h2-2h3-----------------------------------------------|
B|-3---3---3---3-------------------------------------------------|
G|-2---2---2---2-------------------------------------------------|
D|-0---0---0---0-------------------------------------------------|
A|---------------------------------------------------------------|
E|---------------------------------------------------------------|

Intro

Verse:
   D   C9  G   D   D   C9  G   D
e|-2---3---3---2---2---3---3---2---------------------------------|
B|-3---3---3---3---3---3---3---3---------------------------------|
G|-2---0---0---2---2---0---0---2---------------------------------|
D|-0---2---0---0---0---2---0---0---------------------------------|
A|-----3---0-----------3---0-------------------------------------|
E|---------3---------------3-------------------------------------|

Pre-Chorus:
  Em D/F# Asus Bm Em D/F# Asus
e|-3---3---0---2---3---3---0-------------------------------------|
B|-3---3---3---3---3---3---3-------------------------------------|
G|-0---2---2---4---0---2---2-------------------------------------|
D|-2---0---2---4---2---0---2-------------------------------------|
A|-2---0---0---2---2---0---0-------------------------------------|
E|-0---2-----------0---2-----------------------------------------|

Chorus:
   G   D  Asus Em  G   D  Asus G   D   Bm Asus Em  C9
e|-3---2---0---3---3---2---0---3---2---2---0---3---3-------------|
B|-3---3---3---3---3---3---3---3---3---3---3---3---3-------------|
G|-0---2---2---0---0---2---2---0---2---4---2---0---0-------------|
D|-0---0---2---2---0---0---2---0---0---4---2---2---2-------------|
A|-0-------0---2---0-------0---0-------2---0---2---3-------------|
E|-3-----------0---3-----------3---------------0-----------------|

Intro

Verse

Pre-Chorus

Chorus

Intro

Bridge:
   Em  D  Asus Em  Bm Asus G   D  Asus G   A
e|-3---2---0---3---2---0---3---2---0---3---0---------------------|
B|-3---3---3---3---3---3---3---3---3---3---0---------------------|
G|-0---2---2---0---4---2---0---2---2---0---2---------------------|
D|-2---0---2---2---4---2---0---0---2---0---2---------------------|
A|-2-------0---2---2---0---0-------0---0---0---------------------|
E|-0-----------0-----------3-----------3-------------------------|

Bridge

Chorus 2x

Intro

| /  slide up
| \  slide down
| h  hammer-on
| p  pull-off
| ~  vibrato
| +  harmonic
| x  Mute note

Click HERE To Download PDF

2 comments:

Anonymous said...

hey daniel, thanks for including the scripture on each song you cover.. nothing moves more powerfully than His word.. you've been a great blessing to me! keep it up being an instrument to HIm

sandy said...

thank you so much for posting all the pdf and videos, they're really helpful to me! All glory and praise to God