Saturday, December 5, 2009

Soon

SoonA Christian contemporary song by Hillsong. In Revelations 7:9-12, Johns sees a vision of a great multitude of people in white robes, from every nation, tribe and tongue, standing before the throne and in front of the Lamb. worshipping Him. These are the people who have emerged from the great tribulation victorious, by the blood of the Lamb.

This is the scene and place that God has prepared for His saints - where we will serve Him eternally, and be under His care; where all our needs will be met and where we will find eternal rest; where Christ will be King over us and there will be eternal joy (Relevations 7:15-17). Soon and very soon, Christ will return to usher in the new heaven and earth - Come Lord Jesus, come!





-----------------------------------------------------------------
SOON – Hillsong / Brooke Fraser
-----------------------------------------------------------------
Tabbed by: Graham Choo
Email: da_tweens@yahoo.co.uk

Tuning: Standard
Intro:
   D              Dmaj7            D6              D2
e|-2---2---2---2---2---2---2---2---2---2---2---2---0---0---0---0---|
B|-3---3---3---3---2---2---2---2---0---0---0---0---3---3---3---3---|
G|-2-2---2---3---3-2-2---2---2---2-2-2---2---2---2-2-2---2---2---2-|
D|-0---------------0---------------0---------------0---------------|
A|-----------------------------------------------------------------|
E|-----------------------------------------------------------------|

Intro

Verse 1:
   D               Bm              G               Em
e|-2---2---2---2---2---2---2---2---3---3---3---3---0---0---0---0---|
B|-3---3---3---3---3---3---3---3---3---3---3---3---0---0---0---0---|
G|-2-2---2---2---2-4-4---4---4---4-0-0---0---0---0-0-0---0---0---0-|
D|-0---------------------------------------------------------------|
A|-----------------2-----------------------------------------------|
E|---------------------------------3---------------0---------------|

   D               Bm              G       A       D  Dsus D
e|-2---2---2---2---2---2---2---2---3---3---0---0---2---3---2-------|
B|-3---3---3---3---3---3---3---3---3---3---2---2---3---3---3-------|
G|-2-2---2---2---2-4-4---4---4---4-0-0---0-2-2---2-2-2---2-2-------|
D|-0-----------------------------------------------0-------0-------|
A|-----------------2-----------------------0-----------------------|
E|---------------------------------3-------------------------------|

Verse 1

Chorus 1:
  A/C#             G       D       A       Bm      G       D
e|-0---0---0---0---3---3---2---2---0---0---2---2---3---3---2---2---|
B|-0---0---0---0---3---3---3---3---2---2---3---3---3---3---3---3---|
G|-2-2---2---2---2-0-0---0-2-2---2-2-2---2-4-4---4-0-0---0-2-2---3-|
D|-------------------------0-------------------------------0-------|
A|-4-------------------------------0-------2-----------------------|
E|-----------------3-------------------------------3---------------|

  A/C#             Bm  A   G   Em      A       D
e|-0---0---0---0---2---0---3---0---0---0---0---2---2---2---2-------|
B|-0---0---0---0---3---2---3---0---0---2---2---3---3---3---3-------|
G|-2-2---2---2---2-4-4-2-2-0---0-0---0-2-2---2-2-2---2---2---2-----|
D|---------------------------------------------0-------------------|
A|-4---------------2---0---------------0---------------------------|
E|-------------------------3---0-----------------------------------|

Interlude 1:
  Dsus
e|-3---3---3---3---------------------------------------------------|
B|-3---3---3---3---------------------------------------------------|
G|-2-2---2---2-----------------------------------------------------|
D|-0---------------------------------------------------------------|
A|-----------------------------------------------------------------|
E|-----------------------------------------------------------------|

Verse 2:
   D   Bm  G   Em  D   Bm  G   A   D  Dsus D
e|-2---2---3---0---2---2---3---0---2---3---2-----------------------|
B|-3---3---3---0---3---3---3---2---3---3---3-----------------------|
G|-2---4---0---0---2---4---0---2---2---2---2-----------------------|
D|-0---4---0---2---0---4---0---2---0---0---0-----------------------|
A|-----2---2---2-------2---2---0-----------------------------------|
E|---------3---0-----------3---------------------------------------|

Chorus 2:
  A/C# G   D   A   Bm  G   D  A/C# Bm  A   G   Em Asus D
e|-0---3---2---0---2---3---2---0---2---0---3---0---0---2-----------|
B|-0---3---3---2---3---3---3---0---3---2---3---0---2---3-----------|
G|-2---0---2---2---4---0---2---2---4---2---0---0---2---2-----------|
D|-0---0---0---2---4---0---0---0---4---2---0---2---2---0-----------|
A|-4---2-------0---2---2-------4---2---0---2---2---0---------------|
E|-----3---------------3-------------------3---0-------------------|

Interlude 2:
   G   D   Em  Bm D/F# G   D   A   Bm
e|-3---2---0---2---0---3---2---0---2-------------------------------|
B|-3---3---0---3---3---3---3---2---3-------------------------------|
G|-0---2---0---4---2---0---2---2---4-------------------------------|
D|-0---0---2---4---0---0---0---2---4-------------------------------|
A|-2-------2---2---0---2-------0---2-------------------------------|
E|-3-------0-------2---3-------------------------------------------|

Bridge:
   Em  A  D/F# Bm Em D/F# Asus
e|-0---0---0---2---0---0---0---------------------------------------|
B|-0---2---3---3---0---2---3---------------------------------------|
G|-0---2---2---4---0---3---2---------------------------------------|
D|-2---2---0---4---2---0---2---------------------------------------|
A|-2---0---0---2---2---0---0---------------------------------------|
E|-0-------2-------0---2-------------------------------------------|

Chorus 3:
  A/C# G   D   A   Bm  G   D  A/C# Bm  A   G#  Em Asus Bm
e|-0---3---2---0---2---3---2---0---2---0---0---0---0---2-----------|
B|-0---3---3---2---3---3---3---0---3---2---0---0---2---3-----------|
G|-2---0---2---2---4---0---2---2---4---2---4---0---2---4-----------|
D|-0---0---0---2---4---0---0---0---4---2---4---2---2---4-----------|
A|-4---2-------0---2---2-------4---2---0---0---2---0---2-----------|
E|-----3---------------3-------------------4---0-------------------|

Outro:
   Em  A   Bm  Em  A   D  Dsus D
e|-0---0---2---0---0---2---3---2-----------------------------------|
B|-0---2---3---0---2---3---3---3-----------------------------------|
G|-0---2---4---0---2---2---2---2-----------------------------------|
D|-2---2---4---2---2---0---0---0-----------------------------------|
A|-2---0---2---2---0-----------------------------------------------|
E|-0-----------0---------------------------------------------------|

| /  slide up
| \  slide down
| h  hammer-on
| p  pull-off
| ~  vibrato
| +  harmonic
| x  Mute note

Click HERE To Download PDF

2 comments:

lito said...

thank you very much for this great tutorial.. nice rendition.. i would like to play this also as a novice..
all your instructional was helped me a lot.
God bless you so much..

lito said...

thank you for this great tutorial..
nice rendition..
all your instructional is a great help for me as a beginner..

God bless..