Tuesday, March 9, 2010

Word Of God Speak

Word Of God SpeakA worship song by MercyMe. I believe the way God speaks to us today is primarily through His Word, which He has given us through the Bible. His Word trains us in righteousness (2 Timothy 3:16). His Word directs our path (Psalm 119:105). His Word enables us to not sin (Psalm 119:11). His Word is truth and it sanctifies us (John 17:17).

The Word of God also contains the Gospel, which culminates in the person of Jesus and His finished work on the cross. And we know that the holy Scriptures are able to make us wise for salvation through faith in Christ Jesus (2 Timothy 3:15). Word of God speak, would you pour down like rain, washing my eyes to see Your majesty!





-----------------------------------------------------------------
WORD OF GOD SPEAK – MercyMe
-----------------------------------------------------------------
Tabbed by: Graham Choo
Email: da_tweens@yahoo.co.uk

Tuning: Standard
Intro:
   A   D
e|-0---0---------------------------------------------------------|
B|-0---3---------------------------------------------------------|
G|-2---2---------------------------------------------------------|
D|-2---0---------------------------------------------------------|
A|-0-------------------------------------------------------------|
E|---------------------------------------------------------------|

Verse:
   A   D   A   D
e|-0---0---0---0-------------------------------------------------|
B|-0---3---0---3-------------------------------------------------|
G|-2---2---2---2-------------------------------------------------|
D|-2---0---2---0-------------------------------------------------|
A|-0-------0-----------------------------------------------------|
E|---------------------------------------------------------------|

Chorus:
   A   E   G   D   A   E   G   D   
e|-0---0---3---2---0---0---3---2---------------------------------|
B|-0---0---3---3---0---0---3---3---------------------------------|
G|-2---1---0---2---2---1---0---2---------------------------------|
D|-2---2---0---0---2---2---0---0---------------------------------|
A|-0---2---2-------0---2---2-------------------------------------|
E|-----0---3-----------0---3-------------------------------------|

Interlude:
   A
e|-0-------------------------------------------------------------|
B|-0-------------------------------------------------------------|
G|-2-------------------------------------------------------------|
D|-2-------------------------------------------------------------|
A|-0-------------------------------------------------------------|
E|---------------------------------------------------------------|

Verse

Chorus 2x

Outro:
   A   D   A
e|-0---0---0-----------------------------------------------------|
B|-0---3---0-----------------------------------------------------|
G|-2---2---2-----------------------------------------------------|
D|-2---0---2-----------------------------------------------------|
A|-0-------0-----------------------------------------------------|
E|---------------------------------------------------------------|

| /  slide up
| \  slide down
| h  hammer-on
| p  pull-off
| ~  vibrato
| +  harmonic
| x  Mute note

Click HERE To Download PDF

3 comments:

Anonymous said...

Thank you Daniel, this is a great song that you made simpler for me to play. God bless ! -Big Al

Word of God Speak said...

Thanks for the Simplicity. You removed every technicality in the song making it more easy.

CameraClicker said...

I can't believe how easy this song is to play. One of my favorite songs as well as bands!