Wednesday, April 14, 2010

Wonderful Maker

Wonderful Maker ( Not To Us Album Version)A Christian contemporary song by Chris Tomlin and Matt Redman. John 1:1-3 and John 1:10-14 tells us that in the beginning, Jesus was with God and that the world was created through Him, but yet when He was made flesh and came to dwell among them, they did not recognise nor receive Him. But to those who did, He gave the right to become children of God.

The Son of God had come into this dark and hopeless world as the true light that gives light to every man (John 1:9). And the effect of this light was that men who loved darkness rejected Him for fear of their evil deeds being exposed. However those who live by the truth receive the light as a testimony of what God has done through them (John 3:19-21). Indeed what a wonderful Maker and Saviour our God is! Receive Him, the light of the world!

Thanks hnsmusic for the 3rd video below. You've done a great job adding in other instruments which make the song sound a whole lot better :)







---------------------------------------------------------------------
WONDERFUL MAKER – Chris Tomlin / Matt Redman
---------------------------------------------------------------------
Tabbed by: Graham Choo
Email: da_tweens@yahoo.co.uk

Tuning: Standard (Capo 1st Fret)
Verse 1:
   C9  Em  G   Em  C9 D/F# G   C9  Em  G   Em  C9 D/F#
e|-3---3---3---3---3---3---3---3---3---3---3---3---3-------------|
B|-3---3---3---3---3---3---3---3---3---3---3---3---3-------------|
G|-0---0---0---0---0---2---0---0---0---0---0---0---2-------------|
D|-2---2---0---2---2---0---0---2---2---0---2---2---0-------------|
A|-3---2---2---2---3---0---2---3---2---2---2---3---0-------------|
E|-----0---3---0-------2---3-------0---3---0-------2-------------|

Pre-Chorus 1:
  Am7  G   C9 Am7  G   C9 D/F#
e|-3---3---3---3---3---3---3-------------------------------------|
B|-1---3---3---1---3---3---3-------------------------------------|
G|-0---0---0---0---0---0---2-------------------------------------|
D|-2---0---2---2---0---2---0-------------------------------------|
A|-0---2---3---0---2---3---0-------------------------------------|
E|-----3-----------3-------2-------------------------------------|

Chorus:
   C9  D   C9  Em  C9  D   G   C9  D   C9  Em  C9  D   G
e|-3---2---3---3---3---2---3---3---2---3---3---3---2---3---------|
B|-3---3---3---3---3---3---3---3---3---3---3---3---3---3---------|
G|-0---2---0---0---0---2---0---0---2---0---0---0---2---0---------|
D|-2---0---2---2---2---0---0---2---0---2---2---2---0---0---------|
A|-3-------3---2---3-------2---3-------3---2---3-------2---------|
E|-------------0-----------3---------------0-----------3---------|

Verse 2:
   C9  Em  C9  D
e|-3---3---3---2-------------------------------------------------|
B|-3---3---3---3-------------------------------------------------|
G|-0---0---0---2-------------------------------------------------|
D|-2---2---2---0-------------------------------------------------|
A|-3---2---3-----------------------------------------------------|
E|-----0---------------------------------------------------------|

Pre-Chorus 2:
  Am7 G/B  C9 Am7 G/B  C9 D/F#
e|-3---3---3---3---3---3---3-------------------------------------|
B|-1---3---3---1---3---3---3-------------------------------------|
G|-0---0---0---0---0---0---2-------------------------------------|
D|-2---0---2---2---0---2---0-------------------------------------|
A|-0---2---3---0---2---3---0-------------------------------------|
E|-------------------------2-------------------------------------|

Chorus

Pre-Chorus 2

Chorus

Outro:
   C9  D   C9 D/C  C9  G
e|-3---2---3---2---3---3-----------------------------------------|
B|-3---3---3---3---3---3-----------------------------------------|
G|-0---2---0---0---0---0-----------------------------------------|
D|-2---0---2---0---2---0-----------------------------------------|
A|-3-------3---3---3---2-----------------------------------------|
E|---------------------3-----------------------------------------|

| /  slide up
| \  slide down
| h  hammer-on
| p  pull-off
| ~  vibrato
| +  harmonic
| x  Mute note

Click HERE To Download PDF

2 comments:

Ron said...

Thanks so much. I love your tabs and your brother's videos. May God is pleased with your offering.

Desiredfx said...

Thanks guys, Is the pdf coming soon, I love this song thanks so much guys