Thursday, August 5, 2010

I Want To Be Where You Are

I Want To Be Where You AreA worship song by Don Moen. In Hebrews 10:19-23, we read of the author's confidence in drawing near to God - It is by the blood of Jesus, our great priest, which has cleansed us from sin. Therefore we can now draw close to God, for a new and living way has been open by Jesus and what He has done!

Indeed we no longer need to worship from afar, but e can now dwell in His presence, feast at His table, and be surrounded by His glory - for God counts us righteous on account of Jesus' sacrifice. Thank God for this new and living way, and may we echo the words of the song that we want to be with God.





--------------------------------------------------------------
I JUST TO BE WHERE YOU ARE – Don Moen
--------------------------------------------------------------
Tabbed by: Graham Choo
Email: da_tweens@yahoo.co.uk

Tuning: Standard
Verse:
  Am7  C   D   G  Am7  C   D   G
e|-3---0---0---3---3---0---0---3---------------------------------|
B|-1---1---3---3---1---1---3---3---------------------------------|
G|-0---0---0---0---0---0---0---0---------------------------------|
D|-2---2---4---0---2---2---4---0---------------------------------|
A|-0---3---5---2---0---3---5---2---------------------------------|
E|-------------3---------------3---------------------------------|
Verse
Chorus:
  Am7  D   G   Em Am7  D   Em  C9  D   G  D/F# Em  D
e|-3---2---3---3---3---2---3---3---2---3---3---3---2-------------|
B|-1---3---3---3---1---3---3---3---3---3---3---3---3-------------|
G|-0---2---0---0---0---2---0---0---2---0---2---0---2-------------|
D|-2---0---0---2---2---0---2---2---0---0---0---2---0-------------|
A|-0-------2---2---0-------2---3-------2---0---2-----------------|
E|---------3---0-----------0-----------3---2---0-----------------|
   C9  D   Eb  F   G
e|-3---2---6---1---3---------------------------------------------|
B|-3---3---6---1---3---------------------------------------------|
G|-0---2---8---2---0---------------------------------------------|
D|-2---0---8---3---0---------------------------------------------|
A|-3-------6---3---2---------------------------------------------|
E|-------------1---3---------------------------------------------|
Verse
Chorus
Bridge:
   G  D/F# Em Am7  D   Bm  Em Am7 Dsus D
e|-3---3---3---3---2---2---0---0---3---2-------------------------|
B|-3---3---3---1---3---3---0---1---3---3-------------------------|
G|-0---2---0---0---2---4---0---0---2---2-------------------------|
D|-0---0---2---2---0---4---2---2---0---0-------------------------|
A|-2---0---2---0-------2---2---0---------------------------------|
E|-3---2---0---------------0-------------------------------------|
Outro:
  Am7  C   D   G  Am7  C   D   Eb  F   G   C   D   Eb  F   G
e|-3---0---0---3---3---0---0---6---1---3---0---0---6---1---3-----|
B|-1---1---3---3---1---1---3---6---1---3---1---3---6---1---3-----|
G|-0---0---0---0---0---0---0---8---2---0---0---0---8---2---0-----|
D|-2---2---4---0---2---2---4---8---3---0---2---4---8---3---0-----|
A|-0---3---5---2---0---3---5---6---3---2---3---5---6---3---2-----|
E|-------------3-------------------1---3---------------1---3-----|
| /  slide up
| \  slide down
| h  hammer-on
| p  pull-off
| ~  vibrato
| +  harmonic
| x  Mute note

Click HERE To Download PDF

2 comments:

Mark - PowerPoint Sermons said...

Awesome site. Seen you on youtube a good bit. Just saw a video with your site here. You're very talented.

Blessings,
Mark

Chee said...

Hi. Thanks for taking these videos and sharing them. I first found you on youtube. I subscribed to your videos and found this song from your youtube channel. I love this song a alot and you really play it with conviction.

I am a church pianist but also plays the guitar but not that well. You have great talents in Christ. May God bless you in your ministry. I have linked you to my blog.