Wednesday, September 22, 2010

Throne Of Praise

Throne Of PraiseA worship song by Don Moen. In Revelation 15:3-4, we read of the end of God's wrath upon the earth, and those victorious over the evil one, worshiping and singing unto God - a song that speaks of His greatness and glory, and how every nation will bow down before Him for the righteous acts He has done. 

Similarly, we are called to worship God and lift Him up on our praises so that others may know of the wondrous acts He has done, the climax being His Son, Jesus, who has shown us love, mercy, and grace beyond measure by what He has done on the cross. Indeed, our worship is for Christ alone, and we build Him this throne of praise.





-----------------------------------------------------------------
THRONE OF PRAISE – Don Moen
-----------------------------------------------------------------
Tabbed by: Graham Choo
Email: da_tweens@yahoo.co.uk

Tuning: Standard
Intro:
   E  Esus E  Esus
e|-0---0---0---0-------------------------------------------------|
B|-0---0---0---0-------------------------------------------------|
G|-1---2---1---1-------------------------------------------------|
D|-2---2---2---2-------------------------------------------------|
A|-2---2---2---2-------------------------------------------------|
E|-0---0---0---0-------------------------------------------------|
Chorus 1:
   E  G#m  A  G#m  G   B   E  G#m  A   Am  C# F#m  B
e|-0---0---0---0---3---0---0---0---0---0---4---0---0-------------|
B|-0---0---0---0---3---0---0---0---0---1---6---0---0-------------|
G|-1---4---2---4---0---4---1---4---2---2---6---2---4-------------|
D|-2---6---2---6---0---4---2---6---2---2---6---4---4-------------|
A|-2---6---0---6---2---2---2---6---0---0---4---4---2-------------|
E|-0---------------3-------0-------------------------------------| 
Verse:
   E Emaj7 A   E Emaj7 A   B
e|-0---0---0---0---0---0---0-------------------------------------|
B|-0---0---0---0---0---0---0-------------------------------------|
G|-1---1---2---1---1---2---4-------------------------------------|
D|-2---1---2---2---1---2---4-------------------------------------|
A|-2---2---0---2---2---0---2-------------------------------------|
E|-0---0-------0---0---------------------------------------------| 
Pre-Chorus:
  C#m G#m  E  F#m G#m  A  F#m  A   B
e|-4---0---0---0---0---0---0---0---0-----------------------------|
B|-5---0---0---0---0---0---0---0---0-----------------------------|
G|-6---4---1---2---4---2---2---2---4-----------------------------|
D|-6---6---2---4---6---2---4---2---4-----------------------------|
A|-4---6---2---4---6---0---4---0---2-----------------------------|
E|---------0-----------------------------------------------------| 
Chorus 1
Verse
Pre-Chorus
Chorus 2:
   E  G#m  A  G#m  G   B   E  G#m  A  F#m  E   B    
e|-0---0---0---0---3---0---0---0---0---0---0---0-----------------|
B|-0---0---0---0---3---0---0---0---0---0---0---0-----------------|
G|-1---4---2---4---0---4---1---4---2---2---1---4-----------------|
D|-2---6---2---6---0---4---2---6---2---4---2---4-----------------|
A|-2---6---0---6---2---2---2---6---0---4---2---2-----------------|
E|-0---------------3-------0---------------0---------------------|
Outro:
  F#m  E   B  F#m  E  Esus E  Esus E
e|-0---0---0---0---0---0---0---0---0-----------------------------|
B|-0---0---0---0---0---0---0---0---0-----------------------------|
G|-2---1---4---2---1---2---1---2---1-----------------------------|
D|-4---2---4---4---2---2---2---2---2-----------------------------|
A|-4---2---2---4---2---2---2---2---2-----------------------------|
E|-----0-----------0---0---0---0---0-----------------------------|
| /  slide up
| \  slide down
| h  hammer-on
| p  pull-off
| ~  vibrato
| +  harmonic
| x  Mute note

Click HERE To Download PDF

2 comments:

Anonymous said...

Just amazing, brother! God bless you (:

aadsideas said...

Thanks! Shalom!