Wednesday, October 20, 2010

All For Love

All For LoveA Christian worship song by Hillsong. John 3:16-18 tells us the reason why Jesus, God's begotten Son came down to the earth - He came down because God so loved us. He came down so that whoever believes in Him will not perish or remain condemned, but be saved and have eternal life.

It was all for love that Jesus died for us on the cross, in our stead, taking our sins upon Himself and redeeming us from eternal death, which is the rightful punishment for sin. It was all for love that kept Him on the cross when He could have commanded legions of angels to protect Him from His accusers. Indeed we are richly blessed to have a God who love us, and who forgives us our sins on account of what Jesus has done. Let us draw near to Him.





-----------------------------------------------------------------
ALL FOR LOVE – Hillsong
-----------------------------------------------------------------
Tabbed by: Graham Choo
Email: da_tweens@yahoo.co.uk

Tuning: Standard
Intro:
   G  A/C# D   G  A/C# D
e|-3---0---0---3---0---0-----------------------------------------|
B|-3---0---3---3---0---3-----------------------------------------|
G|-0---2---2---0---2---2-----------------------------------------|
D|-0---2---0---0---2---0-----------------------------------------|
A|-2---4-------2---4---------------------------------------------|
E|-3-----------3-------------------------------------------------|
Verse 1:
   G  A/C# D   G  A/C# D   G  A/C# Bm  G  A/C# D
e|-3---0---0---3---0---0---3---0---2---3---0---0-----------------|
B|-3---0---3---3---0---3---3---0---3---3---0---3-----------------|
G|-0---2---2---0---2---2---0---2---4---0---2---2-----------------|
D|-0---2---0---0---2---0---0---2---4---0---2---0-----------------|
A|-2---4-------2---4-------2---4---2---2---4---------------------|
E|-3-----------3-----------3-----------3-------------------------| 
Pre-Chorus:
  A/C# Bm  G   D  A/C# Bm  G
e|-0---2---3---0---0---2---3-------------------------------------|
B|-0---3---3---3---0---3---3-------------------------------------|
G|-2---4---0---2---2---4---0-------------------------------------|
D|-2---4---0---0---2---4---0-------------------------------------|
A|-4---2---2-------4---2---2-------------------------------------|
E|---------3---------------3-------------------------------------|
Chorus:
   A   E  F#m  D   A   E  F#m  D
e|-0---0---0---0---0---0---0---0---------------------------------|
B|-0---0---0---3---0---0---0---3---------------------------------|
G|-2---1---2---2---2---1---2---2---------------------------------|
D|-2---2---4---0---2---2---4---0---------------------------------|
A|-0---2---4-------0---2---4-------------------------------------|
E|-----0---------------0-----------------------------------------|
Verse 1
Pre-Chorus
Chorus 2x
Interlude:
  F#m  D  F#m  D
e|-0---0---0---0-------------------------------------------------|
B|-0---3---0---3-------------------------------------------------|
G|-2---2---2---2-------------------------------------------------|
D|-4---0---4---0-------------------------------------------------|
A|-4-------4-----------------------------------------------------|
E|---------------------------------------------------------------|
Verse 2:
   D   E   A   D   E   A   D   E   A   D   E  F#m
e|-0---0---0---0---0---0---0---0---0---0---0---0-----------------|
B|-3---0---0---3---0---0---3---0---0---3---0---0-----------------|
G|-2---1---2---2---1---2---2---1---2---2---1---2-----------------|
D|-0---2---2---0---2---2---0---2---2---0---2---4-----------------|
A|-----2---0-------2---0-------2---0-------2---4-----------------|
E|-----0-----------0-----------0-----------0---------------------|
Chorus 2x
Outro:
   D Dmaj7 D
e|-0---0---0-----------------------------------------------------|
B|-3---2---3-----------------------------------------------------|
G|-2---2---2-----------------------------------------------------|
D|-0---0---0-----------------------------------------------------|
A|---------------------------------------------------------------|
E|---------------------------------------------------------------|
| /  slide up
| \  slide down
| h  hammer-on
| p  pull-off
| ~  vibrato
| +  harmonic
| x  Mute note


Click HERE To Download PDF

2 comments:

mike said...

cool, thanks for another great post.

Giấy dán tường đẹp said...

Thank you for the post. I like music