Thursday, February 17, 2011

Hallelujah

Hallelujah (Live)A worship song by Hillsong. Its lyrics speak about our response to God for His great salvation, love, glory, and holiness. And that is to worship Him and praise Him. In Revelation 7:9-12, that is what John saw in His vision - a great multitude of people from every tribe and nation, blessing the Lord and crying out to Him; all the angels, elders, and living creatures prostrate before God worshipping Him

There will come a day when Jesus will come again, and all these will come to pass. And we eagerly await His return. But in this transition period that we live in, let us continue to declare our worship and praise to Him, for how else shall we respond to our God for the great things He has done?





-----------------------------------------------------------------
HALLELUJAH – Hillsong
-----------------------------------------------------------------
Tabbed by: Graham Choo
Email: da_tweens@yahoo.co.uk

Tuning: Standard
Intro:
   C  Csus C      Am7     Am7     Csus C   G
e|-0---1---0---0---0---1---0---0---0---0---3---------------------|
B|-1---1---1---3---1---1---1---3---1---1---3---------------------|
G|-0---0---0---0---0---0---0---0---0---0---0---------------------|
D|-2---2---2---2---2---2---2---2---3---2---0---------------------|
A|-3---3---3---3---0---0---0---0---3---3---2---------------------|
E|-----------------------------------------3---------------------|
Intro
Verse:
   C  Am7 Csus C   G   C  Am7 Csus C   G
e|-0---0---0---0---3---0---0---0---0---3-------------------------|
B|-1---1---1---1---3---1---1---1---1---3-------------------------|
G|-0---0---0---0---0---0---0---0---0---0-------------------------|
D|-2---2---3---2---0---2---2---3---2---0-------------------------|
A|-3---0---3---3---2---3---0---3---3---2-------------------------|
E|-----------------3-------------------3-------------------------|
Pre-Chorus:
   C   Gm  F   C   Gm  F
e|-0---3---1---0---3---1-----------------------------------------|
B|-1---3---1---1---3---1-----------------------------------------|
G|-0---3---2---0---3---2-----------------------------------------|
D|-2---5---3---2---5---3-----------------------------------------|
A|-3---5---3---3---5---3-----------------------------------------|
E|-----3---1-------3---1-----------------------------------------|
Chorus:
   G   F   C   G   F   C   G   F  Am7  F   G   
e|-3---1---0---3---1---0---3---1---0---1---3---------------------|
B|-3---1---1---3---1---1---3---1---1---1---3---------------------|
G|-0---2---0---0---2---0---0---2---0---2---0---------------------|
D|-0---3---2---0---3---2---0---3---2---3---0---------------------|
A|-2---3---3---2---3---3---2---3---0---3---2---------------------|
E|-3---1-------3---1-------3---1-------1---3---------------------|
Intro
Verse
Pre-Chorus
Chorus 2x
Outro:
   C  Csus C      Am7     Am7     Csus C   G   C
e|-0---1---0---0---0---1---0---0---0---0---3---0-----------------|
B|-1---1---1---3---1---1---1---3---1---1---3---1-----------------|
G|-0---0---0---0---0---0---0---0---0---0---0---0-----------------|
D|-2---2---2---2---2---2---2---2---3---2---0---2-----------------|
A|-3---3---3---3---0---0---0---0---3---3---2---3-----------------|
E|-----------------------------------------3---------------------|
| /  slide up
| \  slide down
| h  hammer-on
| p  pull-off
| ~  vibrato
| +  harmonic
| x  Mute note
 
 

Click HERE To Download PDF

3 comments:

Sol said...

Cannot download the PDF. Could you try uploading it again please? Thanks a lot.

Graham Choo said...

Hey Sol,

I've tried the link. It's working. Click on the hyperlink, "Click HERE to download PDF"

Thanks!

genosypheus said...

Thank you for this!