Saturday, December 3, 2011

For You Alone

A Christian song by Don Harris. The lyrics speak of our God who deserves all worship, praise and glory. For through prayer and supplication, His peace guards our hearts in Christ Jesus (Philippians 4:6-7). For through Jesus our great High Priest, we can approach God's throne of grace to receive mercy and help in time of need (Hebrews 4:15-16). Thank You God for saving us through your Son, Jesus. And through His life, death, resurrection and salvation, all glory goes to You (John 17:1-5).





-----------------------------------------------------------------
FOR YOU ALONE – Don Harris
-----------------------------------------------------------------
Tabbed by: Graham Choo
Email: da_tweens@yahoo.co.uk

Tuning: Standard (Capo 2nd Fret)
Intro:
   G
e|-3-------------------------------------------------------------|
B|-3-------------------------------------------------------------|
G|-0-------------------------------------------------------------|
D|-0-------------------------------------------------------------|
A|-2-------------------------------------------------------------|
E|-3-------------------------------------------------------------|
Verse:
   G   Bm  Em  C   D   G   Bm  Em  C   B7
e|-3---2---0---0---0---3---2---0---0---2-------------------------|
B|-3---3---0---1---3---3---3---0---1---0-------------------------|
G|-0---4---0---0---0---0---4---0---0---2-------------------------|
D|-0---4---2---2---4---0---4---2---2---1-------------------------|
A|-2---2---2---3---5---2---2---2---3---2-------------------------|
E|-3-------0-----------3-------0---------------------------------|
Pre-Chorus:
   Em  D   C9 G/B Am7 G/B  C9  D
e|-0---2---3---3---3---3---3---2---------------------------------|
B|-0---3---3---3---1---3---3---3---------------------------------|
G|-0---2---0---0---0---0---0---2---------------------------------|
D|-2---0---2---0---2---0---2---0---------------------------------|
A|-2-------3---2---0---2---3-------------------------------------|
E|-0-------------------------------------------------------------|
Chorus:
   C9  D   Bm  Em  C9  D   Bm  E   C9  D   Bm  Em Am7  D
e|-3---2---2---0---3---2---2---0---3---2---2---0---0---2---------|
B|-3---3---3---0---3---3---3---0---3---3---3---0---1---3---------|
G|-0---2---4---0---0---2---4---1---0---2---4---0---0---2---------|
D|-2---0---4---2---2---0---4---2---2---0---4---2---2---0---------|
A|-3-------2---2---3-------2---2---3-------2---2---0-------------|
E|-------------0---------------0---------------0-----------------|
Interlude:
   G   C9  D
e|-3---3---2-----------------------------------------------------|
B|-3---3---3-----------------------------------------------------|
G|-0---0---2-----------------------------------------------------|
D|-0---2---0-----------------------------------------------------|
A|-2---3---------------------------------------------------------|
E|-3-------------------------------------------------------------|
Verse
Pre-Chorus
Chorus
Outro:
   G   C9  G   C9  G
e|-3---3---3---3---3---------------------------------------------|
B|-3---3---3---3---3---------------------------------------------|
G|-0---0---0---0---0---------------------------------------------|
D|-0---2---0---2---0---------------------------------------------|
A|-2---3---2---3---2---------------------------------------------|
E|-3-------3-------3---------------------------------------------|
| /  slide up
| \  slide down
| h  hammer-on
| p  pull-off
| ~  vibrato
| +  harmonic
| x  Mute note

Click HERE To Download PDF