Saturday, March 31, 2012

All Things Are Possible

All Things Are PossibleA Christian song by Hillsong. The lyrics speak of the power of God, the security He provides, and the parises due His name, which bring us great joy in our lives, for He has enabled us to be contented in all circumstances, whether weak or poor, for in Christ we can do so (Philippians 4:11-13).

The song title is taken from Mark 10:24-27, written in the context of how hard it is for the rich to enter the Kingdom of God (for they cannot serve two masters). But with God, all things are possible for the salvation of man, and He has made it possible through His Son Jesus who gave His life up for us as ransom. Thank You Jeus!





-----------------------------------------------------------------
ALL THINGS ARE POSSIBLE – Hillsong
-----------------------------------------------------------------
Tabbed by: Graham Choo
Email: da_tweens@yahoo.co.uk

Tuning: Standard
Intro:
   C  Am7  C  Am7
e|-0---0---0---0-------------------------------------------------|
B|-1---1---1---1-------------------------------------------------|
G|-0---0---0---0-------------------------------------------------|
D|-2---2---2---2-------------------------------------------------|
A|-3---0---3---0-------------------------------------------------|
E|---------------------------------------------------------------|
Verse 1:
   C  Am7  C  Am7 F/C  G  Am7  G  F/C  G
e|-0---0---0---0---0---3---0---3---0---3-------------------------|
B|-1---1---1---1---1---3---1---3---1---3-------------------------|
G|-0---0---0---0---2---0---0---0---2---0-------------------------|
D|-2---2---2---2---3---0---2---0---3---0-------------------------|
A|-3---0---3---0---3---2---0---2---3---2-------------------------|
E|---------------------3-------3-------3-------------------------|
Verse 2:
   C  Am7  C  Am7 F/C  G  Am7  G  F/C  G   A
e|-0---0---0---0---0---3---0---3---0---3---0---------------------|
B|-1---1---1---1---1---3---1---3---1---3---2---------------------|
G|-0---0---0---0---2---0---0---0---2---0---2---------------------|
D|-2---2---2---2---3---0---2---0---3---0---2---------------------|
A|-3---0---3---0---3---2---0---2---3---2---0---------------------|
E|---------------------3-------3-------3-------------------------|
Verse 3
   D   Bm  D   Bm  G  Asus Bm Asus G  Asus
e|-2---2---2---2---3---0---2---0---3---0-------------------------|
B|-3---3---3---3---3---3---3---3---3---3-------------------------|
G|-2---4---2---4---0---2---4---2---0---2-------------------------|
D|-0---4---0---4---0---2---4---2---0---2-------------------------|
A|-----2-------2---2---0---2---0---2---0-------------------------|
E|-----------------3---------------3-----------------------------|
   D   Bm  D   Bm  G  Asus Bm Asus G  Asus
e|-2---2---2---2---3---0---2---0---3---0-------------------------|
B|-3---3---3---3---3---3---3---3---3---3-------------------------|
G|-2---4---2---4---0---2---4---2---0---2-------------------------|
D|-0---4---0---4---0---2---4---2---0---2-------------------------|
A|-----2-------2---2---0---2---0---2---0-------------------------|
E|-----------------3---------------3-----------------------------|
Intro
Verse 2
Verse 3
Chorus:
   Bm Asus G  D/F# G   Bm Asus Bm Asus G
e|-2---0---3---2---3---2---0---2---0---3-------------------------|
B|-3---3---3---2---3---3---3---3---3---3-------------------------|
G|-4---2---0---3---0---4---2---4---2---0-------------------------|
D|-4---2---0---0---0---4---2---4---2---0-------------------------|
A|-2---0---2---0---2---2---0---2---0---2-------------------------|
E|---------3---2---3-------------------3-------------------------|
   A       A       A       A
e|---------------------------------------------------------------|
B|---------------------------------------------------------------|
G|-2---2---2---2---2---2---2-------------------------------------|
D|-2---2---2---2---2---2---2-------------------------------------|
A|-0---0---0---0---0---0---0-------------------------------------|
E|---3---3---3---3---3---3---------------------------------------| 
Verse 3
Chorus
| /  slide up
| \  slide down
| h  hammer-on
| p  pull-off
| ~  vibrato
| +  harmonic
| x  Mute note

Click HERE To Download PDF

2 comments:

Kimberly said...

I love this! I've been practicing this for a week now. I'm getting better at it! Thank you and God bless you!

Andrew said...

What a brilliant resource to have - very many thanks. The Sunday School are singing it and I'm hopeless as working out the chords so this has been a real blessing. Thank you.