Saturday, October 27, 2012

As Long As I Live

A Christian song by True Worshippers. The lyrics speak about all God's people no matter their circumstance, honouring Jesus' name for as long as we live. The same idea is reflected in Paul's parting words to the church in Thessalonica, where he encourages them to rejoice always, pray continually, and give thanks in all circumstances, for this is God's will for them in Christ Jesus (1 Thessalonians 5:16-18).

Therefore let us join in the chorus with all God's people to bring our offering of praise, for He has loved us and covered us with His blood that we might be redeemed from our sins. Let us live a life of worship unto Him for as long as we live.





-----------------------------------------------------------------
AS LONG AS I LIVE – True Worshippers
-----------------------------------------------------------------
Tabbed by: Graham Choo
Email: da_tweens@yahoo.co.uk

Tuning: Standard
Intro:
   A   E  F#m  D   A   E  F#m  D
e|-0---0---0---0---0---0---0---0---------------------------------|
B|-0---0---0---3---0---0---0---3---------------------------------|
G|-2---1---2---2---2---1---2---2---------------------------------|
D|-2---2---4---0---2---2---4---0---------------------------------|
A|-0---2---4-------0---2---4-------------------------------------|
E|-----0---------------0-----------------------------------------|
Verse:
   A   E  F#m  D   A   E  F#m  D
e|-0---0---0---0---0---0---0---0---------------------------------|
B|-0---0---0---3---0---0---0---3---------------------------------|
G|-2---1---2---2---2---1---2---2---------------------------------|
D|-2---2---4---0---2---2---4---0---------------------------------|
A|-0---2---4-------0---2---4-------------------------------------|
E|-----0---------------0-----------------------------------------|
Pre-Chorus:
   Bm F#m  D   E   Bm F#m  D   E
e|-2---0---0---0---2---0---0---0---------------------------------|
B|-3---0---3---0---3---0---3---0---------------------------------|
G|-4---2---2---1---4---2---2---1---------------------------------|
D|-4---4---0---2---4---4---0---2---------------------------------|
A|-2---4-------2---2---4-------2---------------------------------|
E|-------------0---------------0---------------------------------|
Chorus:
   A   E  F#m  D   A   E  F#m  D
e|-0---0---0---0---0---0---0---0---------------------------------|
B|-0---0---0---3---0---0---0---3---------------------------------|
G|-2---1---2---2---2---1---2---2---------------------------------|
D|-2---2---4---0---2---2---4---0---------------------------------|
A|-0---2---4-------0---2---4-------------------------------------|
E|-----0---------------0-----------------------------------------|
Interlude:
   A   E  F#m  D
e|-0---0---0---0-------------------------------------------------|
B|-0---0---0---3-------------------------------------------------|
G|-2---1---2---2-------------------------------------------------|
D|-2---2---4---0-------------------------------------------------|
A|-0---2---4-----------------------------------------------------|
E|-----0---------------------------------------------------------|
Verse
Pre-Chorus
Chorus 2x
Outro:
   A   E  F#m  D   A   E  F#m  D   A
e|-0---0---0---0---0---0---0---0---0-----------------------------|
B|-0---0---0---3---0---0---0---3---0-----------------------------|
G|-2---1---2---2---2---1---2---2---2-----------------------------|
D|-2---2---4---0---2---2---4---0---2-----------------------------|
A|-0---2---4-------0---2---4-------0-----------------------------|
E|-----0---------------0-----------------------------------------|
| /  slide up
| \  slide down
| h  hammer-on
| p  pull-off
| ~  vibrato
| +  harmonic
| x  Mute note

Click HERE To Download PDF

1 comment:

Cary Byrd said...

Nice Video! I will share it with my Christian friends on Christian Music Videos.