Sunday, May 10, 2015

O Jesus, I Have Promised

A classic Christian hymn by John E. Bode. The lyrics speak of our rightful devotion and reliance on our God who has saved us and who is with us to the end. He is our constant Guide who keeps us on the path of righteousness. He is our Shield who protects us from temptations that come our way. He is our Rock, who keeps us firm through the storms of life. He is our Security, who has prepared and secured for us a place with Him for eternity. And He is our Strength, who enables us to persevere to the end.

Thank You Jesus for who You are and all that You've done. Help us to love and follow You with all our heart, mind, and strength!





-----------------------------------------------------------------
O JESUS, I HAVE PROMISED – John E. Bode
-----------------------------------------------------------------
Tabbed by: Graham Choo
Email: da_tweens@yahoo.co.uk

Tuning: Standard
Verse:
   D       E7      D               Bm      G     Asus      A7
e|-2---2---0---0---2-------2-------2---2---3---3---0-------0-------|
B|-3-3---3-0-0---0-3---3-------3---3-3---3-3-3---3-3---3---2-------|
G|-2-------1-------2-2---2---2---2-4-------0-------2-2---2-0-------|
D|-0-------0-------0---------------4-------0-------2-------2-------|
A|---------2-----------------------2-------2-------0-------0-------|
E|---------0-------------------------------3-----------------------|
   D       E       A               A       E       A 
e|-2---2---0---0---0-------0-------0---0---0---0---0-------0-------|
B|-3-3---2-0-0---0-0---0-------0---0-0---0-0-0---0-0---0-------0---|
G|-2-------1-------2-2---2---2---2-2-------1-------2-2---2---2---2-|
D|-0-------2-------2---------------2-------2-------2---------------|
A|---------2-------0---------------0-------2-------0---------------|
E|---------0-------------------------------0-----------------------|
   G               D               G       B7      Em
e|-3-------3-------2-------2-------3---3---2---2---0-------0-------|
B|-3---3-------3---3---3-------3---3-3---3-0-0---0-0---0-------0---|
G|-0-0---0---0---0-2-2---2---2---2-0-------2-------0-0---0---0---0-|
D|-0---------------0---------------0-------1-------2---------------|
A|-2-------------------------------2-------2-------2---------------|
E|-3-------------------------------3---------------0---------------|
   G              Asus             G      Asus     D  Dsus D
e|-3-------3-------0-------0-------3---3---0---0---2---3---2-------|
B|-3---3-------3---3---3-------3---3-3---3-3-3---3-3---3---3-------|
G|-0-0---0---0---0-2-2---2---2---2-0-------2-------2---2---2-------|
D|-0---------------2---------------0-------2-------0---0---0-------|
A|-2---------------0---------------2-------0-----------------------|
E|-3-------------------------------3-------------------------------|
Verse 4x
| /  slide up
| \  slide down
| h  hammer-on
| p  pull-off
| ~  vibrato
| +  harmonic
| x  Mute note

Click HERE To Download PDF

3 comments:

Moses Mano said...

Please follow me! I want to spread chords for tamil christian songs sir!!!
God Bless You!! Cheers!!

loungetronica said...

Awesome tablatures and chord man!

anonymous said...

Hey, anyway you can post a video on Jesus generation? Not just the chords but how they play it on the CD. I'm sorry for commenting the same comment 3 times!! I'm a bit desperate :p