Monday, April 30, 2007

Beautiful One

Beautiful One (When Silence Falls Album Version)Ok, will be working my way from the oldest posted videos to the newest one. To start it off, here's Beautiful One by Tim Hughes. Actually, there's another studio version done by the band called By The Tree which sounds really awesome too. Couldn't find it on YouTube, but there's a live acoustic version by them at http://youtube.com/watch?v=flTFVGlf2fo

The two videos below are the song itself and instructional on how to play the song. Tabs are also below. Enjoy! :P




-----------------------------------------------------------------
BEAUTIFUL ONE – Tim Hughes
-----------------------------------------------------------------
Tabbed by: Graham Choo
Email: da_tweens@yahoo.co.uk

Tuning: Standard
Intro:
   G Asus D/B  D   G  Asus D
e|-3---0---0---0---3---0---0-------------------------------------|
B|-3---3---3---3---3---3---3-------------------------------------|
G|-0---0---2---2---0---0---2-------------------------------------|
D|-0---2---0---0---0---2---0-------------------------------------|
A|-2---0---2-------2---0-----------------------------------------|
E|-3---------------3---------------------------------------------| 
Verse 1:
   G  D/G Asus D   G  D/G Asus D/B
e|-3---0---0---0---3---0---0---0---------------------------------|
B|-3---3---3---3---3---3---3---3---------------------------------|
G|-0---2---0---2---0---2---0---2---------------------------------|
D|-0---0---2---0---0---0---2---0---------------------------------|
A|-2---0---0-------2---0---0---2---------------------------------|
E|-3---3-----------3---3-----------------------------------------| 
   G  D/G Asus D   G  D/G Asus D
e|-3---0---0---0---3---0---0---0---------------------------------|
B|-3---3---3---3---3---3---3---3---------------------------------|
G|-0---2---0---2---0---2---0---2---------------------------------|
D|-0---0---2---0---0---0---2---0---------------------------------|
A|-2---0---0-------2---0---0-------------------------------------|
E|-3---3-----------3---3-----------------------------------------| 
Chorus:
   G  D/G Asus G D/G Asus G  D/G Asus D
e|-3---0---0---3---0---0--3---0---0---0--------------------------|
B|-3---3---3---3---3---3--3---3---3---3--------------------------|
G|-0---2---0---0---2---0--0---2---0---2--------------------------|
D|-0---0---2---0---0---2--0---0---2---0--------------------------|
A|-2---0---0---2---0---0--2---0---0------------------------------|
E|-3---3-------3---3------3---3----------------------------------| 
Verse 2
Chorus
Bridge:
   G  Asus G  Asus G  Asus D
e|-0---0---0---0---0---0---0-------------------------------------|
B|-3---3---3---3---3---3---3-------------------------------------|
G|-0---0---0---0---0---0---2-------------------------------------|
D|-0---2---0---2---0---2---0-------------------------------------|
A|-0---0---0---0---0---0-----------------------------------------|
E|-3-------3-------3---------------------------------------------|
  D/G  Asus D/G  Asus D/G  Asus  D
e|-2----0----2----0----2----0----0-------------------------------|
B|-3----3----3----3----3----3----3-------------------------------|
G|-0----0----0----0----0----0----2-------------------------------|
D|-0----2----0----2----0----2----0-------------------------------|
A|-0----0----0----0----0----0------------------------------------|
E|-3---------3---------3-----------------------------------------| 
Chorus 2x
| /  slide up
| \  slide down
| h  hammer-on
| p  pull-off
| ~  vibrato
| +  harmonic
| x  Mute note

Click HERE To Download PDF

7 comments:

Chrislevu said...

Nice man

Your the bomb!!

debbie said...

wow... i've been looking all over the place for the tabs for this song! some nice work there. thanks!

Anonymous said...

i love what you guys are doing its fantastic,
it really helped me
thank you

Anonymous said...

Very nice:) thanks for sharing with us

Anonymous said...

sounds kinda off beat?

Anonymous said...

Hello! Thank you for posting! Are the tabs different from the instructional video? Seems to miss out D/B.. thank u.

Graham Choo said...

Hey there, the tabs are according to the song video and not the instructional :)
But he does mention the D/B in the instructional. He said B though :)