Saturday, April 28, 2007

Open The Eyes Of My Heart

Open The Eyes Of My HeartHere's the next song by Paul Baloche. Common worship song that everyone sings in church.

The first video is the song itself and the second is an instructional. Tabs are below. Enjoy :P




-----------------------------------------------------------------
OPEN THE EYES OF MY HEART – Paul Baloche
-----------------------------------------------------------------
Tabbed by: Graham Choo
Email: da_tweens@yahoo.co.uk

Tuning: Standard
Intro:
   E  B/Eb A  F#m  E
e|-0---0---0---0---0---------------------------------------------|
B|-0---0---0---0---0---------------------------------------------|
G|-9---8---6---2---9---------------------------------------------|
D|-9---9---7---4---9---------------------------------------------|
A|-7---6---7---4---7---------------------------------------------|
E|-0---0---5-------0---------------------------------------------| 
Verse:
   E  B/Eb A  F#m  E   E  B/Eb A  F#m  E
e|-0---0---0---0---0---0---0---0---0---0-------------------------|
B|-0---0---0---0---0---0---0---0---0---0-------------------------|
G|-9---8---6---2---9---9---8---6---2---9-------------------------|
D|-9---9---7---4---9---9---9---7---4---9-------------------------|
A|-7---6---7---4---7---7---6---7---4---7-------------------------|
E|-0---0---5-------0---0---0---5-------0-------------------------| 
Chorus:
   B  C#m  A   B  C#m F#m
e|-0---4---0---0---4---0-----------------------------------------|
B|-0---5---0---0---5---0-----------------------------------------|
G|-4---6---2---4---6---2-----------------------------------------|
D|-4---6---2---4---6---4-----------------------------------------|
A|-2---4---0---2---4---4-----------------------------------------|
E|---------------------------------------------------------------|
Verse
Chorus:
   B  C#m  A   B  C#m F#m  B
e|-0---4---0---0---4---0---0-------------------------------------|
B|-0---5---0---0---5---0---0-------------------------------------|
G|-4---6---6---4---6---2---4-------------------------------------|
D|-4---6---7---4---6---4---4-------------------------------------|
A|-2---4---7---2---4---4---2-------------------------------------|
E|---------5-----------------------------------------------------|
Bridge:
   E   B   A  F#m  E   E   B   A  F#m  E
e|-0---0---0---0---0---0---0---0---0---0-------------------------|
B|-0---0---0---0---0---0---0---0---0---0-------------------------|
G|-1---4---6---2---1---1---4---6---2---1-------------------------|
D|-2---4---7---4---2---2---4---7---4---2-------------------------|
A|-2---2---7---4---2---2---2---7---4---2-------------------------|
E|-0-------5-------0---0-------5-------0-------------------------| 
Verse:
   E   B   A  F#m  E
e|-0---0---0---0---0---------------------------------------------|
B|-0---0---0---0---0---------------------------------------------|
G|-1---4---2---2---1---------------------------------------------|
D|-2---4---2---4---2---------------------------------------------|
A|-2---2---0---4---2---------------------------------------------|
E|-0---------------0---------------------------------------------| 
| /  slide up
| \  slide down
| h  hammer-on
| p  pull-off
| ~  vibrato
| +  harmonic
| x  Mute not

Click HERE To Download PDF

7 comments:

Col said...

Graham,
I was blessed by your instructional video,I am learning how to play the guitar for Christ and you are a blessing indeed.
God bless you abundantly in Christ Jesus.

Martin@Humanatek.com said...

Hey dude... didn't want to just take without putting my money where my heart is... I wasn't able to give much but do know that your heart's song really touched me today. I'm haven't been doing very well spiritually for many many years, but today I felt Him just a bit, through you. Thanks for the lyrics, tabs and instructions.
H. Martin de'Campo

Draeyh said...

cheers bud for this spot on utube. i heard the song open the eyes of my heart lord that was the only words i had going in my head. so i looked it up on the net found it sung by sonic flood with and instrumentale bit at the end. so then i went looking for tab music to play the song on my guitar. but i found you first on utube playing imediately i started crying deep sobs so our lord used your ministry to minister to me cheers

Anonymous said...

there is no F#m in the song

Graham Choo said...

The song can be played in a variety of ways. You can choose to add the F#m or not, but either way, they both sound ok :) That's the amazing thing about playing the guitar - You can play songs differently and they still sound ok :) God bless

Christopher said...

F#m and F# are the same? :O

both of them are 044200

Graham Choo said...

Hey Christopher, thanks for spotting that! I've included the "m" in the F# in the tabs :)