Saturday, April 28, 2007

Who Am I

Who Am IOk as a side project, I will be embarking on tabbing out whatever videos i can, that my twin brother Daniel has posted up on YouTube. Top priority goes out to those who have requested for tabs to his videos specifically. This song was first on the list.

It's entitled Who Am I, by Casting Crowns. Really beautiful song with meaningful words. The context is taken off Psalm 8:4, "what is man that you are mindful of him".

The videos are below, both the song and the instructional. Tabs are there too. For tips on the strumming pattern, check out the instructional video. Enjoy! :P





-----------------------------------------------------------------
WHO AM I – Casting Crowns
-----------------------------------------------------------------
Tabbed by: Graham Choo
Email: da_tweens@yahoo.co.uk

Tuning: Standard (Capo 2nd Fret)
Intro:
   G               C9              Em             Dsus
e|-3—--3---2—--3---3—--3---2—--3---3—--3---2—--3---3---2---0---2-|
B|-3—--3---3—--3—--3--—3---3—--3---3—--3---3—--3---3---3---3---3-|
G|-0—--0---0—--0—--0--—0---0—--0---0—--0—--0---0---2---2---2---2-|
D|-0---------------2---------------2---------------0-------------|
A|-2—--------------3---------------2-----------------------------|
E|-3-------------------------------0-----------------------------| 
   G               C9              Em             Dsus
e|-3—--3---2—--3---3—--3---2—--3---3—--3---2—--3---3-------------|
B|-3—--3---3—--3—--3--—3---3—--3---3—--3---3—--3---3-------------|
G|-0—--0---0—--0—--0--—0---0—--0---0—--0—--0---0---2-------------|
D|-0---------------2---------------2---------------0-------------|
A|-2—--------------3---------------2-----------------------------|
E|-3-------------------------------0-----------------------------| 
Verse 1:
   G  D/F# Em Dsus C9 Dsus C9  G  D/F# Em Dsus C9 Dsus C9
e|-3---3---3---3---3---3---3---3---3---3---3---3---3---3---------|
B|-3---3---3---3---3---3---3---3---3---3---3---3---3---3---------|
G|-0---2---0---2---0---2---0---0---2---0---2---0---2---0---------|
D|-0---0---2---0---2---0---2---0---0---2---0---2---0---2---------|
A|-2---0---2-------3-------3---2---0---2-------3-------3---------|
E|-3---2---0-------------------3---2---0-------------------------| 
Pre-chorus:
   C9 Dsus Em D/F# Em D/F# C9 Dsus
e|-3---3---3---3---3---3---3---3---------------------------------|
B|-3---3---3---3---3---3---3---3---------------------------------|
G|-0---2---0---2---0---2---0---2---------------------------------|
D|-2---0---2---0---2---0---2---0---------------------------------|
A|-3-------2---0---2---0---3-------------------------------------|
E|---------0---2---0---2-----------------------------------------| 
Chorus:
   G  D/F# Em Dsus C9 Dsus C9  C9 Dsus G
e|-3---3---3---3---3---3---3---3---3---3-------------------------|
B|-3---3---3---3---3---3---3---3---3---3-------------------------|
G|-0---2---0---2---0---2---0---0---2---0-------------------------|
D|-0---0---2---0---2---0---2---2---0---0-------------------------|
A|-2---0---2-------3-------3---3-------2-------------------------|
E|-3---2---0---------------------------3-------------------------| 

   G  D/F# Em Dsus C9 Dsus C9 Dsus G
e|-3---3---3---3---3---3---3---3---3-----------------------------|
B|-3---3---3---3---3---3---3---3---3-----------------------------|
G|-0---2---0---2---0---2---0---2---0-----------------------------|
D|-0---0---2---0---2---0---2---0---0-----------------------------|
A|-2---0---2-------3-------3-------2-----------------------------|
E|-3---2---0-----------------------3-----------------------------| 
Intro
Verse 2 
Pre-chorus 
Chorus
| /  slide up
| \  slide down
| h  hammer-on
| p  pull-off
| ~  vibrato
| +  harmonic
| x  Mute note

Click HERE To Download PDF

18 comments:

Anonymous said...

thank you!
Fiona yan

Christine said...

this is awesome that you and your brother do this! :)

Anonymous said...

thankyou for all this. your singing and guitaring is really blessing and really shout the name JESUS to everyone.

God bless.

asdf said...

i like it in capo 3. thanks for the tabs. god bless.

astrid1508 said...

Thank you for posting these videos!!I'm trying to play who am I. You are very talented!
And I'm also a twin:P we're from the netherlands:)
Astrid

Jo said...

hey it the instructional video is not working..

Anonymous said...

I want to thank you and your brother for all of the awesome songs,tabs and videos! I haven't played for over 20 years and i'm playing " WHO AM I " in church this sunday(if I get the intro down)
God bless! from: Big Al (USA)

Chloe said...

Mate, this blog is now bookmarked. God Bless you for putting so much into these instructional videos! I've been all over the internet for this kind of help. :)

dean said...

Thank you so much guys for the time you spend to instruct us, you are truly a blessing.
I am learning so much from you as a budding worship leader and wanting to push myself to be the best I can, for his glory.
Thanks Dean
Bayside international church
Tauranga
New Zealand

racheal said...

i was listening to some casting crowns on you tube and stumble across your twin brother's video. it is amazing! i have absolutely no guitar playing skills but thank you for what you and your brother do..it was so touching to watch! hugs.

janax said...

this is great..i wanted to sing this song at our church and now i got the tabs, i can play it while singing..thank you very much! God bless you and your brother!

mach2Toulon said...

Merci pour votre tablature.
Beau boulot

Tet said...

Praise God for sharing your talents to everyone..i am inspired to play the guitar again & learn from you both..Godbless and continue glorifying God through your blogs & videos..:)

Anonymous said...

Absolutely fantastic , thank you so much for sharing your talents through these amazing tutorials . It inspired me to want to pick up my guitar and play for the glory of God.

You guys rock ....brilliant May god continue to bless you as you use your talent for his glory

Amazing !!!

Anonymous said...

Be an agent of change and spread your blessing to others hoping and praying that they may also do the same to others.

Anonymous said...

This is a fantastic resource. Thank you for taking the time and making this available to others.

Lord Bless You!

Anonymous said...

Hi,
thanks for the tabs! This sounds stupid, but for the intro, how does the strumming pattern of D D DDU fit with each chord which has only 4 strums (from your instructional, I see that the first full strum is a D, while the other 3 half strums are U)

Graham Choo said...

Hey there,

For the Intro, if you're following the tabs, then just play according to the tabs in downstrokes.

However, if you're following the PDF and just want to play a G, C, Em , and Dsus in general without the other movements, then you can following the strumming pattern D D DDU.