Monday, May 14, 2007

From The Inside Out

From The Inside OutHere's a song from Hillsongs. The videos below are the song itself and the instructional. Tabs are below.





-----------------------------------------------------------------
FROM THE INSIDE OUT – Hillsongs
-----------------------------------------------------------------
Tabbed by: Graham Choo
Email: da_tweens

Tuning: Standard
Intro:
   F         C       G     F         C       G
e|-0-------0-----0---------0-------0-----0-----------------------|
B|-1---1---1-1-1-1-1-3-0---1---1---1-1-1-1-1-3-0-----------------|
G|-0h2---2-2-0---0---0---0-0h2---2-2-0---0---0---0---------------|
D|-3-------3-2-------0-----3-------3-2-------0-------------------|
A|-----------3-------2---------------3-------2-------------------|
E|-------------------3-----------------------3-------------------| 
Verse 1:
   F   C   G   F   C   G
e|-0---0---3---0---0---3-----------------------------------------|
B|-1---1---3---1---1---3-----------------------------------------|
G|-2---0---0---2---0---0-----------------------------------------|
D|-3---2---0---3---2---0-----------------------------------------|
A|-----3---2-------3---2-----------------------------------------|
E|---------3-----------3-----------------------------------------| 
Pre-Chorus:
  Am7  F   C   G  Am7  F   C   G
e|-0---1---0---3---0---1---0---3---------------------------------|
B|-1---1---1---3---1---1---1---3---------------------------------|
G|-0---2---0---0---0---2---0---0---------------------------------|
D|-2---3---2---0---2---3---2---0---------------------------------|
A|-0---3---3---2---0---3---3---2---------------------------------|
E|-----1-------3-------1-------3---------------------------------|
Intro
Verse 2 
Pre-Chorus
Chorus:
   F   C   Am  G   F  Am7  G   Dm
e|-1---0---0---3---1---0---3---1---------------------------------|
B|-1---1---1---3---1---1---3---3---------------------------------|
G|-2---0---2---0---2---0---0---2---------------------------------|
D|-3---2---2---0---3---2---0---0---------------------------------|
A|-3---3---0---2---3---0---2-------------------------------------|
E|-1-----------3---1-------3-------------------------------------| 
Bridge:
   Am  F   C   G  Am7  F   C   G   C   F   G  Am7  F   G   F   G
e|-0---1---0---3---0---1---0---3---0---1---3---0---1---3---1---3-|
B|-1---1---1---3---1---1---1---3---1---1---3---1---1---3---1---3-|
G|-2---2---0---0---0---2---0---0---0---2---0---0---2---0---2---0-|
D|-2---3---2---0---2---3---2---0---2---3---0---2---3---0---3---0-|
A|-0---3---3---2---0---3---3---2---3---3---2---0---3---2---3---2-|
E|-----1-------3-------1-------3-------1---3-------1---3---1---3-| 
Chorus
Bridge
   F   G   F   G   C   F   C
e|-1---3---1---3---0---0---0-------------------------------------|
B|-1---3---1---3---1---1---1-------------------------------------|
G|-2---0---2---0---0---0---0-------------------------------------|
D|-3---0---3---0---2---3---2-------------------------------------|
A|-3---2---3---2---3---3---3-------------------------------------|
E|-1---3---1---3-------------------------------------------------| 
| /  slide up
| \  slide down
| h  hammer-on
| p  pull-off
| ~  vibrato
| +  harmonic
| x  Mute note

Click HERE To Download PDF

15 comments:

yizhun said...

i have difficulties changing the a minor chord to the f chord . i can change the A minor chord to what u say the baby F but not the bar chord f .i will slow down whenever i switch to those 2 chords is there anyway to help?

Jonathan said...

Hi, I really appreciate the time that you have put into this. It is helping me very much. yay Jesus, you've been gifted with teaching skills and playing skills, and I've been gifted by your desire to share them...

EB says said...

Thank you for sharing these instructions. Some of us would not get to enjoy these songs without your help. God bless

kk said...

Ah man lol Great work Seriously Your videos have really helped me alot but uh...ur vid of u playing from the inside out is down So just giving a heads up

Joel said...

Hi, my name is Joel, I live in Mérida, Yucatán(MEXICO). I really appreciate your work and I just wanted to say thank you. I play the guitar in my church and your videos have helped me alot.

God bless you
in spanish:
DIOS TE BENDIGA ;)

Bo said...

an easier way to play the intro:

e|-----12-----------|
B|---13---15-12---|
G|-12----------12-|
D|------------------|
A|------------------|
E|------------------|

e|-------------12---|
B|---------13-------|
G|---12-14---14---|
D|------------------|
A|------------------|
E|------------------|

well good luck bro. you are blessed with great talent. and im glad that youre using it for God. (Romans 12).

-Bo Cenzano

Graham Choo said...

Hey bo, thanks for the alternative way of playing the intro! I'm sure others will benefit from it too! :)

Think that'd it'd be great for an electric guitar to play since it's really high up the frets :)

samurai said...

Hey Graham,

Praise God for your musical talent. My name is Jae, I'm from Houston, Texas.

I go to a small Filipino Church, and God's calling me to serve in any way I can. I'm also learning to play the guitar because I'd one day like to lead worship. I love praise & worship because it brings us closer to the heart of God.

Your instructional videos have been a blessing and an encouragement. Keep on praising God!

Anonymous said...

HI Daniel and Graham. Can you make a video of "CRY IN MY HEART by STARFIELD"?

Glenda V said...

hey can you make a video for "worth it all" by Rita springer ... God bless ..keep playing music ...its great

Darren said...

Hi Graham, thanks alot for this song!
I've been trying to learn this and i'm having some prob learning how to strum and pluck with a pick at the same.
Is there any chance u can do it slower with closeup?

Kim seung you South Korea said...

Dear friend, I pray that you may enjoy good health and that all may go well with you, even as your soul is getting along well.

Anonymous said...

The tempo for this song is 69. I wanted to toss that out there as I'm trying to learn it and the chord structure is tripping me up a bit, so, the tempo helps to know with a metronome with you :)

James said...

Hey Graham, Thanks for the video. I'm having trouble seeing all the strings that you are picking for the intro. It looks to me like G, hammer off,B,G,e,A,B,e,B,...and then I'm not sure what happens when you switch the chord to G. Could you help me out here?
Thanks,
James

Graham Choo said...

Hey James, actually if you read the tabs, it'll tell you exactly which strings need to be pressed for the intro :)
Hope that helps!