Monday, May 14, 2007

Your Grace Is Enough

Your Grace Is EnoughHere's a song by Matt Maher. Declares how great our God is and how His grace is enough for us.

Features both the video and an instructional on how to play it. Tabs are below.





-----------------------------------------------------------------
YOUR GRACE IS ENOUGH – Matt Maher
-----------------------------------------------------------------
Tabbed by: Graham Choo
Email: da_tweens@yahoo.co.uk

Tuning: Standard
Intro:
   G  G/B  C9  Em Dsus C9
e|-3---3---3---3---3---3-----------------------------------------|
B|-3---3---3---3---3---3-----------------------------------------|
G|-0---0---0---0---2---0-----------------------------------------|
D|-0---0---2---2---0---2-----------------------------------------|
A|-2---2---3---2-------3-----------------------------------------|
E|-3-----------0-------------------------------------------------| 
Verse 1:
   G  G/B  C9  Em Dsus C9 D/C  G  G/B  C9  Em Dsus C9
e|-3---3---3---3---3---3---2---3---3---3---3---3---3-------------|
B|-3---3---3---3---3---3---3---3---3---3---3---3---3-------------|
G|-0---0---0---0---2---0---0---0---0---0---0---2---0-------------|
D|-0---0---2---2---0---2---0---0---0---2---2---0---2-------------|
A|-2---2---3---2-------3---3---2---2---3---2-------3-------------|
E|-3-----------0---------------3-----------0---------------------| 
Pre-Chorus:
  Am7 D/B  C9 Dsus Em  G   C9
e|-0---3---3---3---3---3---3-------------------------------------|
B|-1---3---3---3---3---3---3-------------------------------------|
G|-0---2---0---2---0---0---0-------------------------------------|
D|-2---0---2---0---2---0---2-------------------------------------|
A|-0---2---3-------2---2---3-------------------------------------|
E|-----------------0---3-----------------------------------------| 
Chorus:
   G  Dsus Em  C9  G  Dsus C9 D/C
e|-3---3---3---3---3---3---3---2---------------------------------|
B|-3---3---3---3---3---3---3---3---------------------------------|
G|-0---2---0---0---0---2---0---0---------------------------------|
D|-0---0---2---2---0---0---2---0---------------------------------|
A|-2-------2---3---2-------3---3---------------------------------|
E|-3-------0-------3---------------------------------------------| 
Verse 2
Pre-Chorus
Chorus 3x
Intro 
| /  slide up
| \  slide down
| h  hammer-on
| p  pull-off
| ~  vibrato
| +  harmonic
| x  Mute note

Click HERE To Download PDF

9 comments:

Anonymous said...

you're great =D

Anonymous said...

This song is not originally by Chris Tomlin but by Matt Maher.

Graham Choo said...

Hey, thanks for the info. Will change it acknowledge the original composer :) God bless!

vallev99 said...

you are VERY talented. it is great that you are using it for GOD. but can you put how many times to play the strumming pattern in a chord? and also can you put in the strumming patterns? please. its okay if you dont feel like it, i just thought it would be better for us learners

Graham Choo said...

Hey vallev99, I'm currently working on writing pdfs for the lyrics and chords, including strumming patterns. You can check out the progress from the "Recently Added" section on the top left-hand side of the blog.
Currently, I'm up to R. Y will come soon enough.

Scott said...

Thanks Daniel. Appreciate all your hard work. Hopefully I can make this work for our life group. God Bless.

Scott said...

Thanks Daniel. Appreciate all your hard work. Hopefully I can make this work for our life group. God Bless.

Not sure why I said Daniel when your name is Graham ... sorry.

Graham Choo said...

Hey Scott, actually I (Graham) run the blog, but Dan does the Christian videos. So it's ok to call either of us :)
Glad that the blog's been a great help to you. God bless!

Anonymous said...

Hi! thanks soo much for posting this, with the strumming patterns and how many times its played in the pdf. I love this song so much..so I'm currently learning it, the videos really help too (I've only started learning the guitar myself a few months ago.)
I really appreciate your hard work in creating this blog, yay now I can learn Christian songs! *bookmarks blog* God is awesome!!