Wednesday, May 30, 2007

Hosanna (Paul Baloche)

HosannaHere's a song performed by Paul Baloche. Hosanna means "Praise the Lord" in Hebrew I think, and the lyrics speak of how we should praise Him because He has come to save us.

The first video is the song itself. The second is the instructional. Tabs are below.





-----------------------------------------------------------------
HOSANNA – Paul Baloche
-----------------------------------------------------------------
Tabbed by: Graham Choo
Email: da_tweens@yahoo.co.uk

Tuning: Standard
Verse 1:
   G   C9  G   G   C9  G
e|-3---3---3---3---3---3-----------------------------------------|
B|-3---3---3---3---3---3-----------------------------------------|
G|-0---0---0---0---0---0-----------------------------------------|
D|-0---2---0---0---2---0-----------------------------------------|
A|-2---3---2---2---3---2-----------------------------------------|
E|-3-------3---3-------3-----------------------------------------| 
Pre-Chorus:
   D   C9  G   D   C9  G   D
e|-2---3---3---2---3---3---2-------------------------------------|
B|-3---3---3---3---3---3---3-------------------------------------|
G|-2---0---0---2---0---0---2-------------------------------------|
D|-0---2---0---0---2---0---0-------------------------------------|
A|-----3---2-------3---2-----------------------------------------|
E|---------3-----------3-----------------------------------------|
Chorus:
   G   Em  C9  G   D   Em  C9  G   Em  C9  G   D   Em  C9
e|-3---3---3---3---2---3---3---3---3---3---3---2---3---3---------|
B|-3---3---3---3---3---3---3---3---3---3---3---3---3---3---------|
G|-0---0---0---0---2---0---0---0---0---0---0---2---0---0---------|
D|-0---2---2---0---0---2---2---0---2---2---0---0---2---2---------|
A|-2---2---3---2-------2---3---2---2---3---2-------2---3---------|
E|-3---0-------3-------0-------3---0-------3-------0-------------| 
Verse 2
Pre-Chorus
Chorus 2x
  D/C  C9 D/C  G
e|-2---3---2---3-------------------------------------------------|
B|-3---3---3---3-------------------------------------------------|
G|-0---0---0---0-------------------------------------------------|
D|-0---2---0---0-------------------------------------------------|
A|-3---3---3---2-------------------------------------------------|
E|-------------3-------------------------------------------------| 
| /  slide up
| \  slide down
| h  hammer-on
| p  pull-off
| ~  vibrato
| +  harmonic
| x  Mute note

Click HERE To Download PDF

4 comments:

Timothy Ting said...

Hosanna means "save" in Hebrew. You can check the meaning at John 12:1 in a NIV bible. anyway, thanks for the guitar lessons.

Graham Choo said...

Hey I just checked it up. You're right. But I guess when it's used in an exclamation context, it's used to express praise and adoration to God. Cool, now I know :P

Ramu said...

Hey bro Daniel,

You are such a wonderful blessings to all of us brothers and sisters in Christ scattered all around the Globe.

I would like to take a moment to wish you all the BEST!

I thank God for your ministry!

Happy New Year 2010!

Blessings,
Ramu

Nicholas Davey said...

Thank you for your wonderful work.. It truly is a blessing and has enabled me to praise with my guitar as well as my voice..

May God Bless you!

Love in Christ,

Your brother Nick