Monday, May 28, 2007

Love Song

Love SongThis is one of the first Third Day songs we ever learnt. I remember my eldest brother playing it for a Good Friday event about 5 - 6 years back, and we just had to learn it. Really touching and meaningful lyrics that speaks of the great love Jesus had for us - even until death on the cross.

The first video is the song itself. The second is the instructional. Tabs are below





-----------------------------------------------------------------
LOVE SONG – Third Day
-----------------------------------------------------------------
Tabbed by: Graham Choo
Email: da_tweens@yahoo.co.uk

Tuning: Standard (Capo 2nd Fret)
Intro:
   Em                C         D             G         B7
e|-----------0---------------0-------3p2-2h3-----3---------2-----|
B|---------0---------------1-------3-----3-------3---------0-----|
G|-------0---------------0-------2-------------0---------2-------|
D|-----4-----------0---2-------0---------------------------------|
A|---2---------0h2---3-----------------------------0-1-2---------|
E|-0-----------------------------------------3-------------------| 
Verse 1:
   Em  C   D   G   B7  Em  C   D   G
e|-0---0---2---3---2---0---0---2---3-----------------------------|
B|-0---1---3---3---0---0---1---3---3-----------------------------|
G|-0---0---2---0---2---0---0---2---0-----------------------------|
D|-2---2---0---0---1---2---2---0---0-----------------------------|
A|-2---3-------2---2---2---3-------2-----------------------------|
E|-0-----------3-------0-----------3-----------------------------| 
Pre-Chorus:
   C9  G   Am  D  Dsus D
e|-3---3---0---2---3---2-----------------------------------------|
B|-3---3---1---3---3---3-----------------------------------------|
G|-0---0---2---2---2---2-----------------------------------------|
D|-2---0---2---0---0---0-----------------------------------------|
A|-3---2---0-----------------------------------------------------|
E|-----3---------------------------------------------------------| 
Chorus:
   G   D   C9  G   D   G   D   C9  Em  D  Dsus D
e|-3---2---3---3---2---3---2---3---3---2---3---2-----------------|
B|-3---3---3---3---3---3---3---3---3---3---3---3-----------------|
G|-0---2---0---0---2---0---2---0---0---2---2---2-----------------|
D|-0---0---2---0---0---0---0---2---2---0---0---0-----------------|
A|-2-------3---2-------2-------3---2-----------------------------|
E|-3-----------3-------3-----------0-----------------------------| 
Verse 2:
   Em  C9  D   G   B7  Em  C9  D   G
e|-0---3---2---3---2---0---3---2---3-----------------------------|
B|-0---3---3---3---0---0---3---3---3-----------------------------|
G|-0---0---2---0---2---0---0---2---0-----------------------------|
D|-2---2---0---0---1---2---2---0---0-----------------------------|
A|-2---3-------2---2---2---3-------2-----------------------------|
E|-0-----------3-------0-----------3-----------------------------| 
Pre-Chorus
Chorus
Bridge:
   Bm  Em  C9  G   Bm  Em  C9 Dsus D
e|-2---3---3---3---2---3---3---3---2-----------------------------|
B|-3---3---3---3---3---3---3---3---3-----------------------------|
G|-4---0---0---0---4---0---0---2---2-----------------------------|
D|-4---2---2---0---4---2---2---0---0-----------------------------|
A|-2---2---3---2---2---2---3-------------------------------------|
E|-----0-------3-------0-----------------------------------------| 
Chorus
   Em  D  Dsus G   C9  G   C9  G   C9  G
e|-3---2---3---3---3---3---3---3---3---3-------------------------|
B|-3---3---3---3---3---3---3---3---3---3-------------------------|
G|-0---2---2---0---0---0---0---0---0---0-------------------------|
D|-2---0---0---0---2---0---2---0---2---0-------------------------|
A|-2-----------2---3---2---3---2---3---2-------------------------|
E|-0-----------3-------3-------3-------3-------------------------|
| /  slide up
| \  slide down
| h  hammer-on
| p  pull-off
| ~  vibrato
| +  harmonic
| x  Mute note

Click HERE To Download PDF

3 comments:

Anonymous said...

your voice is awesome!! i love this song! keep it up!

Pilya said...

Thank you for this!

Anonymous said...

thanks.....

this song is great....(H)

God bless

xaito