Monday, June 4, 2007

Above All

Above AllAn all-time favourite Good Friday song, sung by Paul Baloche. Speaks of Jesus' death on the cross, and the reason for it - Us.

The first video is the song itself. The second is the instructional. Tabs are below.





-----------------------------------------------------------------
ABOVE ALL – Paul Baloche
-----------------------------------------------------------------
Tabbed by: Graham Choo
Email: da_tweens@yahoo.co.uk

Tuning: Standard
Intro:
   A   D   E   A
e|-0---2---0---0-----------------------------------------------------|
B|-0---3---0---0-----------------------------------------------------|
G|-2---2---1---2-----------------------------------------------------|
D|-2---0---2---2-----------------------------------------------------|
A|-0-------2---0-----------------------------------------------------|
E|---------0---------------------------------------------------------| 
Verse 1:
   D   E   A   D   E   A  F#m  E   D  A/C# Bm Bm/A E   A
e|-2---0---0---2---0---0---0---0---0---0---2---0---0---0-------------|
B|-3---0---0---3---0---0---0---0---3---0---3---3---0---0-------------|
G|-2---1---2---2---1---2---2---1---2---2---4---4---1---2-------------|
D|-0---2---2---0---2---2---4---2---0---0---4---4---2---2-------------|
A|-----2---0-------2---0---4---2-------4---2---0---2---0-------------|
E|-----0-----------0-----------0-------------------0-----------------|
   D   E   A   D   E   A  F#m  E   D  A/C# Bm Bm/A C#  
e|-2---0---0---2---0---0---0---0---0---0---2---0---4-----------------|
B|-3---0---0---3---0---0---0---0---3---0---3---3---6-----------------|
G|-2---1---2---2---1---2---2---1---2---2---4---4---6-----------------|
D|-0---2---2---0---2---2---4---2---0---0---4---4---6-----------------|
A|-----2---0-------2---0---4---2-------4---2---0---4-----------------|
E|-----0-----------0-----------0-------------------------------------| 
Chorus:
   A   Bm  E   A   A   Bm  E   A  F#m  E   D  A/C# Bm C#m  D   E   A
e|-0---2---0---0---0---2---0---0---0---0---0---0---2---4---0---0---0-|
B|-0---3---0---0---0---3---0---0---0---0---3---0---3---5---3---0---0-|
G|-2---4---1---2---2---4---1---2---2---1---2---2---4---6---2---1---2-|
D|-2---4---2---2---2---4---2---2---4---2---0---0---4---6---0---2---2-|
A|-0---2---2---0---0---2---2---0---4---2-------4---2---4-------2---0-|
E|---------0---------------0-----------0-----------------------0-----| 
Chorus
Intro
| /  slide up
| \  slide down
| h  hammer-on
| p  pull-off
| ~  vibrato
| +  harmonic
| x  Mute note

Click HERE To Download PDF

7 comments:

L. A. said...

i'm gonna link your blog in mine cuz I like, keep up the good work for the Lord : D

Graham Choo said...

Thanks L.A. Do tell your friends about it! Always good to have ppl praising the Lord through music :P

Yahs said...

there is a wrong tab, before the Bm, needs to continue with the one that is just 0-0-3-4-4-0 and the E and then A in the fisrt verse!!

look at the video and he said that you should put that chord

thanks

Yahs said...

sorry, should be after Bm and before E and A in the last ones of the first verse

Graham Choo said...

Hey yahs, you're right! I missed out that Bm/A chord. Have changed the tabs already. Thanks!

vi said...

Thanks for your video. I think it's awesome. However, do you think you can indicate on your tab the strumming pattern and where to change the strumming pattern as well? Thanks!

Graham Choo said...

Hey Vi, I considered doing that, but I think the tabs would look be too long and cluttered with too many numbers. I'm still working out how I can implement it.

But anyway, the strumming pattern can be found on the video, and it's quite easy to follow.

Intro: D D UDUDD DU, D D DU 2x, D D UDUDD DU
Verse: (D D DU 2x, D D UDUDD DU)2x, D D DU 8x, (D D DU 2x, D D UDUDD DU)2x, D D DU 7x, D D UDUDD DU
Chorus: D D DU