Monday, June 4, 2007

Your Love Oh Lord

Your Love Oh LordA Third Day song based on Psalm 36:5 - 7.

The first video is the song itself. The second is the instructional. Tabs are below.





-----------------------------------------------------------------
YOUR LOVE OH LORD – Third Day
-----------------------------------------------------------------
Tabbed by: Graham Choo
Email: da_tweens@yahoo.co.uk

Tuning: Standard
Intro:
   E  Esus E  Esus
e|-0---0---0---0-------------------------------------------------|
B|-0---0---0---0-------------------------------------------------|
G|-1---2---1---2-------------------------------------------------|
D|-2---2---2---2-------------------------------------------------|
A|-2---2---2---2-------------------------------------------------|
E|-0---0---0---0-------------------------------------------------| 
Verse 1:
   E  Esus E   B  C#m  A   E   B  C#m  A   E   B  C#m  A   E   B
e|-0---0---0---0---4---0---0---0---4---0---0---0---4---0---0---0-|
B|-0---0---0---0---5---0---0---0---5---0---0---0---5---0---0---0-|
G|-1---2---1---4---6---2---1---4---6---2---1---4---6---2---1---4-|
D|-2---2---2---4---6---2---2---4---6---2---2---4---6---2---2---4-|
A|-2---2---2---2---4---0---2---2---4---0---2---2---4---0---2---2-|
E|-0---0---0---------------0---------------0---------------0-----| 
Chorus:
   B   A   E  Esus E   B  F#m  B
e|-0---0---0---0---0---0---0---0---------------------------------|
B|-0---0---0---0---0---0---0---0---------------------------------|
G|-4---2---1---2---1---4---2---4---------------------------------|
D|-4---2---2---2---2---4---4---4---------------------------------|
A|-2---0---2---2---2---2---4---2---------------------------------|
E|---------0---0---0---------------------------------------------| 
Verse 1
Chorus
Verse 2:
   E  Esus E   B  C#m  A   E  Esus E            
e|-0---0---0---0---4---0---0---0---0-----------------------------|
B|-0---0---0---0---5---0---0---0---0-----------------------------|
G|-1---2---1---4---6---2---1---2---1-----------------------------|
D|-2---2---2---4---6---2---2---2---2-----------------------------|
A|-2---2---2---2---4---0---2---2---2-----------------------------|
E|-0---0---0---------------0---0---0-----------------------------| 
| /  slide up
| \  slide down
| h  hammer-on
| p  pull-off
| ~  vibrato
| +  harmonic
| x  Mute note

Click HERE To Download PDF

6 comments:

L. A. said...

Thanks for sharing, God bless ya!!

denise said...

hey! a suggestion. In order for us to play the song. We'll need to know the song. U only show tabs.. could u, if it's not too troublesome, have the lyrics too? So it'll be easier?
Just a suggestion(=
God Bless~
1 Thess 5:16

Graham Choo said...

Hey Denise, I've actually considered adding the lyrics into the post before, but the post will be too long, and I think a shorter post would be more convenient for viewers - hence I left the lyrics out.
Alternatively, you can double click on the video itself, which will bring you to the YouTube website. We added the lyrics for all our songs in the video description, so you can check it out there :) Hope it helps a little

klara said...

Hey :). I'm so in love with this song & want to play it, but can't seem to get the instructional video to play, though I've tried several times. Any advice? Thank you for being such a blessing, brothers, you tuly have a gift, passion and open hearts!

Graham Choo said...

Hey klara, does the video not loading happen with other videos as well on this blog, or even on YouTube? Sometimes it may be due to some internet connection / LAN settings on your browser.
Try using other browsers to play the video e.g. Internet Explorer, Mozilla Firefox, or Google Chrome :)

klara said...

Thanks Graham. No, it was only this one that wouldn't play, but it played after trying like 20 more times, haha. I still dont know why though. Thanks again. :)!