Friday, June 15, 2007

Amazing Love, You Are My King

You Are My King (Amazing Love) (One Day Live Album Version)A worship song by Chris Tomlin. Speaks of the amazing love that Christ has for us, to even die on the cross for our sins. Our response then, is to honor Him in all that we do.





-----------------------------------------------------------------------
AMAZING LOVE, YOU ARE MY KING – Chris Tomlin
-----------------------------------------------------------------------
Tabbed by: Graham Choo
Email: da_tweens@yahoo.co.uk

Tuning: Standard
Intro:
   E  Esus E  Esus
e|-0---0---0---0-------------------------------------------------|
B|-0---0---0---0-------------------------------------------------|
G|-1---2---1---2-------------------------------------------------|
D|-2---2---2---2-------------------------------------------------|
A|-2---2---2---2-------------------------------------------------|
E|-0---0---0---0-------------------------------------------------| 
Verse:
  G#m  A   B  G#m  A   B  G#m  A   B   A   B   E  Esus
e|-0---0---0---0---0---0---0---0---0---0---0---0---0-------------|
B|-0---0---0---0---0---0---0---0---0---0---0---0---0-------------|
G|-4---6---8---4---6---8---4---6---8---6---8---1---2-------------|
D|-6---7---9---6---7---9---6---7---9---7---9---2---2-------------|
A|-6---7---9---6---7---9---6---7---9---7---9---2---2-------------|
E|-----5---7-------5---7-------5---7---5---7---0---0-------------| 
Verse
Chorus:
   E   A   E   B  G#m  A   E   B   A   B   E
e|-0---0---0---0---0---0---0---0---0---0---0---------------------|
B|-0---0---0---0---0---0---0---0---0---0---0---------------------|
G|-1---2---1---4---4---6---1---4---2---4---1---------------------|
D|-2---2---2---4---6---7---2---4---2---4---2---------------------|
A|-2---0---2---2---6---7---2---2---0---2---2---------------------|
E|-0-------0-----------5---0---------------0---------------------| 
Intro
Bridge:
   E  Esus E  Esus E  Esus E  Esus E  Esus E  Esus E  Esus E
e|-0---0---0---0---0---0---0---0---0---0---0---0---0---0---0-----|
B|-0---0---0---0---0---0---0---0---0---0---0---0---0---0---0-----|
G|-1---2---1---2---1---2---1---2---1---2---1---2---1---2---1-----|
D|-2---2---2---2---2---2---2---2---2---2---2---2---2---2---2-----|
A|-2---2---2---2---2---2---2---2---2---2---2---2---2---2---2-----|
E|-0---0---0---0---0---0---0---0---0---0---0---0---0---0---0-----| 
Chorus
| /  slide up
| \  slide down
| h  hammer-on
| p  pull-off
| ~  vibrato
| +  harmonic
| x  Mute note

Click HERE To Download PDF

3 comments:

Spagman63 said...

Why are you using a G#m when it is not the relative of E major? It is the third chord in the key. Why not use the root?

Graham Choo said...

Hey Spagman63, we didn't learn music formally so we're just playing what we hear.
The original seems to play it with a G#m.

Anonymous said...

Common guitar saying : 'If it sounds right, it is right'