Tuesday, June 12, 2007

Now That You're Near

Now That You're NearA fast-paced worship song by Hillsongs. It's really suited for the younger generation with a driving beat that makes you wanna jump. But more importantly, it speaks about how God's presence and relationship with us, changes our lives, and how we should respond to him in worship.

The first video is the song itself. The second is the instructional. Tabs are below.




-----------------------------------------------------------------
NOW THAT YOU’RE NEAR – Hillsongs
-----------------------------------------------------------------
Tabbed by: Graham Choo
Email: da_tweens@yahoo.co.uk

Tuning: Standard
Intro:
  C#m  A   E   B  C#m  A   E   B
e|-4---0---0---0---4---0---0---0---------------------------------|
B|-5---0---0---0---5---0---0---0---------------------------------|
G|-6---2---1---4---6---2---1---4---------------------------------|
D|-6---2---2---4---6---2---2---4---------------------------------|
A|-4---0---2---2---4---0---2---2---------------------------------|
E|---------0---------------0-------------------------------------| 
Pre-Chorus:
  C#m  A   E   B  C#m  A   E   B
e|-4---0---0---0---4---0---0---0---------------------------------|
B|-5---0---0---0---5---0---0---0---------------------------------|
G|-6---2---1---4---6---2---1---4---------------------------------|
D|-6---2---2---4---6---2---2---4---------------------------------|
A|-4---0---2---2---4---0---2---2---------------------------------|
E|---------0---------------0-------------------------------------| 
Interlude:
   E  F#m G#m  A   E  F#m G#m  A
e|-0---0---0---0---0---0---0---0---------------------------------|
B|-0---0---0---0---0---0---0---0---------------------------------|
G|-1---2---4---6---1---2---4---6---------------------------------|
D|-2---4---6---7---2---4---6---7---------------------------------|
A|-2---4---6---7---2---4---6---7---------------------------------|
E|-0-----------5---0-----------5---------------------------------|
Verse 1:
   E  Esus E   A  C#m  A   B   E  Esus E   A  C#m  A   B
e|-0---0---0---0---4---0---0---0---0---0---0---4---0---0---------|
B|-0---0---0---0---5---0---0---0---0---0---0---5---0---0---------|
G|-1---2---1---2---6---2---4---1---2---1---2---6---2---4---------|
D|-2---2---2---2---6---2---4---2---2---2---2---6---2---4---------|
A|-2---2---2---0---4---0---2---2---2---2---0---4---0---2---------|
E|-0---0---0-------------------0---0---0-------------------------| 
Pre-Chorus
Chorus:
   E   B  C#m  A   E   B  C#m  A   B
e|-0---0---4---0---0---0---4---0---0-----------------------------|
B|-0---0---5---0---0---0---5---0---0-----------------------------|
G|-1---4---6---2---1---4---6---2---4-----------------------------|
D|-2---4---6---2---2---4---6---2---4-----------------------------|
A|-2---2---4---0---2---2---4---0---2-----------------------------|
E|-0---------------0---------------------------------------------| 
Interlude
Verse 1
Pre-Chorus
Chorus
Bridge:
  C#m  B   E   B  C#m  B   A
e|-4---0---0---0---4---0---0-------------------------------------|
B|-5---0---0---0---5---0---0-------------------------------------|
G|-6---4---1---4---6---4---2-------------------------------------|
D|-6---4---2---4---6---4---2-------------------------------------|
A|-4---2---2---2---4---2---0-------------------------------------|
E|---------0-----------------------------------------------------| 
Intro
Pre-Chorus
Chorus 2x
Interlude
| /  slide up
| \  slide down
| h  hammer-on
| p  pull-off
| ~  vibrato
| +  harmonic
| x  Mute note

Click HERE To Download PDF

4 comments:

Anonymous said...

These are awesome. God Bless.

lyrics said...

I love your voice.

Keep on glorifying the Lord! God bless.

ADR said...

DID I MEnTION U ROCK >:O

Anonymous said...

Wow... This is the first time that I saw someone like you and your brother! This was great, we've been given different talents from the Lord and you've got the right mind to share it with us... Thank you so much I hope more peoples would be encouraged to discover and improve their God given talents in order to use it for the Glory of the Lord. God Bless Brothers... :)