Sunday, July 15, 2007

Amazing Grace, My Chains Are Gone

Amazing Grace (My Chains Are Gone)A classic hymn that has a new chorus added by Chris Tomlin. Indeed we have been set free from our bondage to sin because of Christ's death on the cross in our stead.





-------------------------------------------------------------------------------
AMAZING GRACE, MY CHAINS ARE GONE – Chris Tomlin
-------------------------------------------------------------------------------
Tabbed by: Graham Choo
Email: da_tweens@yahoo.co.uk

Tuning: Standard (Capo 2nd Fret)
Intro:
    D   Asus  D   Asus
e|-0h2---0---0h2---0---------------------------------------------|
B|-3-3---3---3-3---3---------------------------------------------|
G|-2-2---2---2-2---2---------------------------------------------|
D|-0-0---2---0-0---2---------------------------------------------|
A|-------0---------0---------------------------------------------|
E|---------------------------------------------------------------| 
Verse 1:
   D   G   D   D  Asus A7  D  D/F# G   D   D  Asus D
e|-2---3---2---2---0---0---2---0---3---2---2---0---2-------------|
B|-3---3---3---3---3---2---3---3---3---3---3---3---3-------------|
G|-2---0---2---2---2---0---2---2---0---2---2---2---2-------------|
D|-0---0---0---0---2---2---0---0---0---0---0---2---0-------------|
A|-----2-----------0---0-------0---2-----------0-----------------|
E|-----3-----------------------2---3-----------------------------| 
Verse 1
Chorus:
  D/F# G  D/F# G  Asus A7 D/F# G  D/F# Em Asus D
e|-0---3---0---3---0---0---0---3---0---3---0---2-----------------|
B|-3---3---3---3---3---2---3---3---3---3---3---3-----------------|
G|-2---0---2---0---2---0---2---0---2---0---2---2-----------------|
D|-0---0---0---0---2---2---0---0---0---2---2---0-----------------|
A|-0---2---0---2---0---0---0---2---0---2---0---------------------|
E|-2---3---2---3-----------2---3---2---0-------------------------| 
Verse 2:
   D  D/F# G   D   D  Asus A7  D  D/F# G   D   D  Asus D
e|-2---0---3---2---2---0---0---2---0---3---2---2---0---2---------|
B|-3---3---3---3---3---3---2---3---3---3---3---3---3---3---------|
G|-2---2---0---2---2---2---0---2---2---0---2---2---2---2---------|
D|-0---0---0---0---0---2---2---0---0---0---0---0---2---0---------|
A|-----0---2-----------0---0-------0---2-----------0-------------|
E|-----2---3-----------------------2---3-------------------------| 
Chorus 2x
Verse 1
   D  Asus D   D  Asus D
e|-2---0---2---2---0---2-----------------------------------------|
B|-3---3---3---3---3---3-----------------------------------------|
G|-2---2---2---2---2---2-----------------------------------------|
D|-0---2---0---0---2---0-----------------------------------------|
A|-----0-----------0---------------------------------------------|
E|---------------------------------------------------------------| 
| /  slide up
| \  slide down
| h  hammer-on
| p  pull-off
| ~  vibrato
| +  harmonic
| x  Mute note

Click HERE To Download PDF

7 comments:

Anonymous said...

i wonder if you might do an instructional video for this, my brother just died and i really want to sing it at his funeral, thank you.

Anonymous said...

Hey can you give me the strumming pattern for this song I'm just a beginner and i really want to learn how to play this song.

Ex: down down up etc.....

God bless

Anonymous said...

Im sorry didn't see the instructional video. Now i get it thank you. May God bless you.

rockalex said...

hey choo... great work!

i think you´ve made a mistake by tab AMAZING Grace by Chris Tomlin...

- in the first verse you´ve forgot after [D] a [D/F#]

but in the pdf, you write in!


sorry for my english...xD

Graham Choo said...

Hey rockalex, thanks for pointing that out. I actually tabbed it according to how Daniel played it in the video. He didn't play a D/F# there.
But whether the chords is a D or D/F# doesn't really matter cause they both sound alright :) Thanks!

Anonymous said...

Amiable brief and this mail helped me alot in my college assignement. Say thank you you seeking your information.

apenmagali said...

Choo brothers, I just wanted to thank you for all you do for the Glory of God. Your instructional videos are great!
May God continue blessing you in all you do!
In Christ
Magali