Wednesday, July 18, 2007

Mighty Is The Power Of The Cross

Mighty Is The Power Of The CrossA worship song by Chris Tomlin. Pretty hard to achieve the plucking and singing unless you practice hard. Tells of the redeeming power of Christ's death on the cross for us - indeed mighty is the power of the cross.





--------------------------------------------------------------------------
MIGHTY IS THE POWER OF THE CROSS – Chris Tomlin
--------------------------------------------------------------------------
Tabbed by: Graham Choo
Email: da_tweens@yahoo.co.uk

Tuning: Eb G# C# F# Bb Eb
Intro:
   G                       C
e|---------------------------------------------------------------|
B|-0---0-------------------0h1---1-----0-------------------------|
G|-----------2-----0-----0-------------------2-----0-------------|
D|---0-----0-----0-----0-------2-----2-----2-----2---------------|
A|-------------------------3-------3-----3-----3-----------------|
E|-3-----3-----3-----3-------------------------------------------| 
Intro
Verse 1:
   G                     Em
e|---------------------------------0-----------------------------|
B|-0---0---------------------0-----------0-----------------------|
G|-----------2-----0-------0-----0-----0-------------------------|
D|---0-----0-----0-----------------------------------------------|
A|---------------------------------------------------------------|
E|-3-----3-----3-----3-2-0-----0-----0-----0---------------------|
   C                      D/F#
e|-----------------------------------------0---------------------|
B|-----------1-----3-----1-----------3-----------3----3----------|
G|-----------------------------0---2-----2-----2----2------------|
D|---------2-----2-----2-----2-----------------------------------|
A|-0h2-2h3-----3-----3-----3-------------------------------------|
E|-------------------------------2-----2-----2-----2-------------| 
   G                     Em
e|---------------------------------0-----------------------------|
B|-0---0---------------------0-----------0-----------------------|
G|-----------2-----0-------0-----0-----0-------------------------|
D|---0-----0-----0---------------------------2-0-----------------|
A|---------------------------------------------------------------|
E|-3-----3-----3-----3-2-0-----0-----0-----0---------------------| 
   C               D
e|---------------------------0-----------------------------------|
B|-------1-------1-----3-----------3-----------------------------|
G|-----0-------0-----2-----2-----2-------------------------------|
D|---2-----0h2-----0-----0-----0---------------------------------|
A|-3-------------------------------------------------------------|
E|---------------------------------------------------------------|
Chorus 1:
       C9              D     G
e|---------------------0-----------------------------------------|
B|-----3-------3---------3-0-------------------------------------|
G|---------0-------0-------------0-------0-----------------------|
D|-------2---2---2---2-0-------0-------0-------------------------|
A|-0h2-3---------------------------0h2---------------------------|
E|---------------------------3-----------------------------------|
   C9      G/B     D
e|-----------------------3---0h2---------------------------------|
B|-------3-------3-----3---------3-------------------------------|
G|-----0-------0-----2-----2-------------------------------------|
D|---2-------0-----0---------------------------------------------|
A|-3-------2-----------------------------------------------------|
E|---------------------------------------------------------------| 
   C9              D     G
e|---------------------0-----------------------------------------|
B|-----3-------3---------3-0-------------------------------------|
G|---------0-------0-------------0-------0-----------------------|
D|-------2---2---2---2-0-------0-------0-------------------------|
A|-0h2-3---------------------------0h2---------------------------|
E|---------------------------3-----------------------------------|
   C9      G/B     D                     C9  Em  D
e|-----------------------3---0h2---------0---0---0h2-------------|
B|-------3-------3-----3---------3-------3---3---3---------------|
G|-----0-------0-----2-----2-------------0---0---2---------------|
D|---2-------0-----0-------------------0-2---2---0---------------|
A|-3-------2-----------------------0h2---3---2-------------------|
E|-------------------------------------------0-------------------| 
Intro
Verse 2
Chorus 1
Bridge:
   C9  Em  C9  Em  C9  Em Am7  D  Dsus D
e|-0---0---0---0---0---0---0---2---3---2-------------------------|
B|-3---3---3---3---3---3---1---3---3---3-------------------------|
G|-0---0---0---0---0---0---0---2---2---2-------------------------|
D|-2---2---2---2---2---2---2---0---0---0-------------------------|
A|-3---2---3---2---3---2---0-------------------------------------|
E|-----0-------0-------0-----------------------------------------| 
Chorus 2:
   C9  D  D/G  C9 G/B  D  Dsus C9  D  D/G  C9 G/B  D  Dsus
e|-3---3---3---3---3---2---3---3---3---3---3---3---2---3---------|
B|-3---3---3---3---3---3---3---3---3---3---3---3---3---3---------|
G|-0---2---2---0---0---2---2---0---2---2---0---0---2---2---------|
D|-2---0---0---2---0---0---0---2---0---0---2---0---0---0---------|
A|-3-------0---3---2-----------3-------0---3---2-----------------|
E|---------3---------------------------3-------------------------| 
   C9  D  D/G  C9 G/B  D  Dsus C9  D  D/G  C9 G/B  D  Dsus
e|-3---3---3---3---3---2---3---3---3---3---3---3---2---3---------|
B|-3---3---3---3---3---3---3---3---3---3---3---3---3---3---------|
G|-0---2---2---0---0---2---2---0---2---2---0---0---2---2---------|
D|-2---0---0---2---0---0---0---2---0---0---2---0---0---0---------|
A|-3-------0---3---2-----------3-------0---3---2-----------------|
E|---------3---------------------------3-------------------------| 
   C9  Em Dsus C9  Em Dsus C9  Em   D
e|-3---3---3---3---3---3---3---3---0h2---------------------------|
B|-3---3---3---3---3---3---3---3---3-3---------------------------|
G|-0---0---2---0---0---2---0---0---2-2---------------------------|
D|-2---2---0---2---2---0---2---2---0-0---------------------------|
A|-3---2-------3---2-------3---2---------------------------------|
E|-----0-----------0-----------0---------------------------------| 
Intro 2x
| /  slide up
| \  slide down
| h  hammer-on
| p  pull-off
| ~  vibrato
| +  harmonic
| x  Mute note

Click HERE To Download PDF

9 comments:

Jeffrey said...

Hey Graham that is a beautiful song. Good Job on it :] Do you think you or your brother can make an instructional video for it please? Because i can't seem to figure out how to play it :[

Graham Choo said...

Hey Jeffrey, he says he'll try. He didn't make an instructional yet because he said the plucking's really hard. It's also hard to instruct on it when it's that hard to pluck... heh. We'll see k? :)

Grace said...

Awesome! Your guitar skills are impressive--and even better if you tabbed it yourself! I'm about to embark on learning this one; thanks for the tab.

Anonymous said...

e|---------------------------------------------------------------
|B|-0---0-------------------0h1---1-----0-------------------------
|G|--------0--2-----0-----0----------0--------2-----0-------------
|D|---0-----0-----0-----0-------2-----2-----2-----2---------------
|A|-------------------------3-------3-----3-----3-----------------
|E|-3-----3-----3-----3-------------------------------------------|

I added two notes in Intro.

Graham Choo said...

Hey, I can't quite understand how the tabs you wrote are played. The alignment's a little off. I tried the intro in the video's tabs, and they sound alright :)

SHAN said...

hey.. great guitar skills! i learnt the song using the tabs supplied on the blog. :) was wondering.. could you help figure out another of Chris Tomlin's song.. Love from the album Hello Love. Could ya? i can't seem to catch any of it. be great if you could help. :) thanks! you can contact me at fenzooler182@yahoo.com btw. hope to hear from you. :)

Anonymous said...

Thank you and God bless you!

Joshua Khor said...

Can you please make an instructional? I really want to learn this. I'm not good at reading tabs. At least teach the intro? Please?

Graham Choo said...

Hey Joshua, it's really hard making instructionals for plucking songs, especially when they're unconventional like this song. Actually, tabs would be the best way to learn the song. Hope you understand :)